Seals And Crofts - Summer Breeze chords

      
Standard Tuning

E-022100
G-320033
D-xx0232
A-002220
C-032013
B7-224242
Bm-224432

Intro:

|--------------| |----0-1-------| |----1-0-------| |----2-2-------| |--2---3-------| |0-------------|x2
|-0-3--10--8--7--5--5--3-----0--||-0-5---------------------3--0--||------12--9--9--7--7--5--5-----||-------------------------------||-------------------------------||-------------------------------|x2
Verse:
E G See the curtains hanging in the window
D A E C In the evening on a Friday night
E G A little light a shinin' through the window
D A E C Lets me know everything is all right
Chorus:
Am Bm Summer breeze, makes me feel fine
Am G Blowing through the jasmine in my mind
|-------------||-0-1-3-1-0---||-0-0-0-0-0-0-||-----------2-||-------------||-------------|
Am Bm Summer breeze, makes me feel fine
Am G Blowing through the jasmine in my mind
|-------------||-0-1-3-1-0---||-0-0-0-0-0-0-||-----------2-||-------------||-------------|
|-0-3--10--8--7--5--5--3-----0--||-0-5---------------------3--0--||------12--9--9--7--7--5--5-----||-------------------------------||-------------------------------||-------------------------------|x2
Verse:
E G See the paper laying on the sidewalk
D A E C A little music from the house next door
E G So I walk on up to the doorstep
D A E C Through the screen and across the floor
Chorus:
Am Bm Summer breeze, makes me feel fine
Am G Blowing through the jasmine in my mind
|-------------||-0-1-3-1-0---||-0-0-0-0-0-0-||-----------2-||-------------||-------------|
Am Bm Summer breeze, makes me feel fine
Am G Blowing through the jasmine in my mind
|-------------||-0-1-3-1-0---||-0-0-0-0-0-0-||-----------2-||-------------||-------------|
Bridge:
E C E C Sweet days of summer, the jasmines in bloom
E C E C July is dressed up and playing her tune.
Am Bm And I come home from a hard days work
Am Bm B7 And you're waiting there not a care in the world
Verse:
E G See the smile waitin in the kitchen
D A E C Food cooking and plates for two
E G Feel the arms that reach out to hold me
D A E C In the evening when the day is through
Chorus:
Am Bm Summer breeze, makes me feel fine
Am G Blowing through the jasmine in my mind
|-------------||-0-1-3-1-0---||-0-0-0-0-0-0-||-----------2-||-------------||-------------|
Am Bm Summer breeze, makes me feel fine
Am G Blowing through the jasmine in my mind
|-------------||-0-1-3-1-0---||-0-0-0-0-0-0-||-----------2-||-------------||-------------|
|-0-3--10--8--7--5--5--3-----0--||-0-5---------------------3--0--||------12--9--9--7--7--5--5-----||-------------------------------||-------------------------------||-------------------------------|
|-0-3--10--8--7--5--5--3-----0--||-0-5---------------------3--0--||------12--9--9--7--7--5--5--1--||----------------------------2--||----------------------------2--||----------------------------0--|
Tap to rate this tab
 
# A B C D E F G H I J K L M N O P Q R S T U V W X Y Z