Seasons End – A Ghost In My Emotion tab

Seasons End – A Ghost in My Emotion
Taken from the EP, ‘The Failing Light’
Tuning - Standard
Band Website - http://www.seasons-end.com/

Intro 0:00--------------------------0----------------------|----------3--------------------------------------|------6-------6---6---6---------6----------------|----4---4---4---4---4---4----4-------------------|-------------------------------------------------|-------------------------------------------------|
---------------------------0-------------------------|-----------3-----------------------------------------|---6---6-------6---6---6--------6--------------------| x11-4---4---4---4---4---4---4---4-----------------------|-----------------------------------------------------|-----------------------------------------------------|
Verse 1 0:38---------------------------0------------------------|-----------3----------------------------------------|---6---6-------6---6---6-------6--------------------| x8-4---4---4---4---4---4---4---4----------------------|----------------------------------------------------|----------------------------------------------------|
A guitar break at 1:05
Verse 2 1:18---------------------------0------------------------|-----------3----------------------------------------|---6---6-------6---6---6-------6--------------------| x8-4---4---4---4---4---4---4---4----------------------|----------------------------------------------------|----------------------------------------------------|
Chorus 1:45-----------------------------------------------------|-----------------------------------------------------|-------------7-6---------------------9-6-------------|-------------7-6---------------------9-6-------------|-------------5-4---------------------7-4-------------|-2-2-2-2-2-2--------2-2-2-2-2-2-2-2------------------| . . . . . . . . . . . . . .
---------------------------------------------------|---------------------------------------------------|----------------7-6----------------------9-6-------|----------------7-6----------------------9-6-------| x7----------------5-4----------------------7-4-------|2-2-2-2-2-2-2-2--------2-2-2-2-2-2-2-2-------------|. . . . . . . . . . . . . . . .
Verse 3 2:11---------------------------0------------------------|-----------3----------------------------------------|-------6-------6---6---6-------6--------------------|-----4---4---4---4---4---4---4----------------------|----------------------------------------------------|----------------------------------------------------|
------------------------------0-------------------------|------------3-------------------------------------------|---6---6--------6---6---6-------6-----------------------| x7-4---4---4---4---4---4---4---4--------------------------|--------------------------------------------------------|--------------------------------------------------------|
2:37------------------- -------------------------------|------------------- -------------------------------|-------9----------- --------9----------------------|-4--7--9--9--12---- x3 --4--7--9---9------------------|-4--7--7--9--12---- --4--7--7---9-----------------|-2--5-----7--10---- --2--5------7-----------------|
Chorus 3:03-----------------------------------------------------|-----------------------------------------------------|-------------7-6---------------------9-6-------------|-------------7-6---------------------9-6-------------|-------------5-4---------------------7-4-------------|-2-2-2-2-2-2--------2-2-2-2-2-2-2-2------------------| . . . . . . . . . . . . . .
--------------------------------------------------------|--------------------------------------------------------|---------------------7-6----------------------9-6-------|---------------------7-6----------------------9-6-------| x3---------------------5-4----------------------7-4-------|-2-2-2-2-2-2-2-2--------2-2-2-2-2-2-2-2-----------------| . . . . . . . . . . . . . . . .
Verse 4 3:17--------------------------0-----------------|----------3---------------------------------|------6-------6---6---6---------6-----------|----4---4---4---4---4---4----4--------------|--------------------------------------------|--------------------------------------------|
--------------------------0-------------------------|----------3-----------------------------------------|---6---6-------6---6---6-------6--------------------| x3-4---4---4---4---4---4---4---4----------------------|----------------------------------------------------|----------------------------------------------------|
-------------------------------------------------------|-------------------------------------------------------|-------------------------------------------------------|---4--5------------------------------------------------|---4--5------------------------------------------------|---2--3------------------------------------------------|
Verse 5 3:33--------------------------0-----------------|----------3---------------------------------|------6-------6---6---6---------6-----------|----4---4---4---4---4---4----4--------------|--------------------------------------------|--------------------------------------------|
---------------------------0------------------------|-----------3----------------------------------------|---6---6-------6---6---6-------6--------------------|-4---4---4---4---4---4---4---4----------------------|----------------------------------------------------|----------------------------------------------------|
--------------------------------------------------------|-----------9--------------------------------------------|-----------9--------------------------------------------|---4--5----7--------------------------------------------|---4--5-------------------------------------------------|---2--3-------------------------------------------------|
Chorus 3:46-----------------------------------------------------|-----------------------------------------------------|-------------7-6---------------------9-6-------------|-------------7-6---------------------9-6-------------|-------------5-4---------------------7-4-------------|-2-2-2-2-2-2--------2-2-2-2-2-2-2-2------------------| . . . . . . . . . . . . . .
---------------------------------------------------|---------------------------------------------------|----------------7-6----------------------9-6-------|----------------7-6----------------------9-6-------| x3----------------5-4----------------------7-4-------|2-2-2-2-2-2-2-2--------2-2-2-2-2-2-2-2-------------|. . . . . . . . . . . . . . . .
Fill 3:59--------------------------------------------------------|--------------------------------------------------------|----7--6--9----9-6-7------------------------------------|-4--7--6--9--4-9-6-7------------------------------------| x4-4--5--4--7--4-7-4-5------------------------------------|-2-----------2------------------------------------------|
4:13------------------- -------------------------------|------------------- -------------------------------|-------9----------- --------9----------------------|-4--7--9--9--12---- x3 --4--7--9---9------------------|-4--7--7--9--12---- --4--7--7---9-----------------|-2--5-----7--10---- --2--5------7-----------------|
------------------- -------------------------------|------------------- -------------------------------|-------9----------- --------9----------------------|-4--7--9--9--12---- x3 --4--7--9---9------------------|-4--7--7--9--12---- --4--7--7---9-----------------|-2--5-----7--10---- --2--5------7-----------------|
5:07--------------------------------------------------------|--------------------------------------------------------|--------------------------------------------------------|-4-5-2-4--/4--2-----------------------------------------| x3-4-5-2-4------------------------------------------------|-2-3-0-2------------------------------------------------|
--------------------------------------------------------|--------------------------------------------------------|--------------------------------------------------------|-4-5-2-4------------------------------------------------|-4-5-2-4------------------------------------------------|-2-3-0-2------------------------------------------------|
Ends Please rate
Please rate this tab:
x1.0