Semisonic - Closing Time tab version 3

              





		SEMISONIC - CLOSING TIME





	INTRO: 

	        WARM OPEN DRIVE


|------------------------------------------| |------------------------------------------| |------------7-7-7-0-------------5-5-5-0---| |--5-5-5-0---7-7-7-0---7-7-7-0---5-5-5-0---| |--5-5-5-0---5-5-5-0---7-7-7-0---3-3-3-0---| |--3-3-3-0-------------5-5-5-0-------------|
|------------------------------------------| |------------------------------------------| |------------7-7-7-0-------------5-5-5-0---| |--5-5-5-0---7-7-7-0---7-7-7-0---5-5-5-0---| |--5-5-5-0---5-5-5-0---7-7-7-0---3-3-3-0---| |--3-3-3-0-------------5-5-5-0-------------|
|---7-----7------10----7-----7-----7------8------7-------| |------8-----8------8-----8-----8-----8------8------8----| |--------------------------------------------------------| |--------------------------------------------------------| |--------------------------------------------------------| |--------------------------------------------------------|
|------------------------------------------| |------------------------------------------| |------------7-7-7-0-------------5-5-5-0---| |--5-5-5-0---7-7-7-0---7-7-7-0---5-5-5-0---| |--5-5-5-0---5-5-5-0---7-7-7-0---3-3-3-0---| |--3-3-3-0-------------5-5-5-0-------------|
|---7-----7------10----7-----7-----7------8------7-------| |------8-----8------8-----8-----8-----8------8------8----| |--------------------------------------------------------| |--------------------------------------------------------| |--------------------------------------------------------| |--------------------------------------------------------|
VERSE: G D Closing time Am C G D Am C Open all the doors and let you out into the world G D Closing time Am C G D Am C Turn all of the lights on over every boy and every girl G D Closing time Am C G D Am C One last call for alcohol so finish your whiskey or beer G D Closing time Am C G D Am C You don't have to go home but you can't stay here DO IT WITH INTRO CHORDS
|---7-----7------10----7-----7-----7------8------7-------| |------8-----8------8-----8-----8-----8------8------8----| |--------------------------------------------------------| |--------------------------------------------------------| |--------------------------------------------------------| |--------------------------------------------------------|
CHORUS: G D Am C I know who I want to take me home G D Am C I know who I want to take me home G D Am C I know who I want to take me home G D - Am - C Take me home
|----------------------------------------------| |----------------------------------------------| |-----------------7-7-------------------5-5----| |---5-5-X-X-X-X---7-7---7-7---X-X-X-X---5-5----| |---5-5-X-X-X-X---5-5---7-7---X-X-X-X---3-3----| |---3-3-X-X-X-X---------5-5---X-X-X-X----------|
VERSE: G D Closing time Am C G D Am C Time for you to go out to the places you will be from G D Closing time Am C G D Am C This room won't be open till your brothers or your sisters come G D Am C So gather up your jackets move it to the exits G D Am C I hope you have found a friend G D Closing time Am C G D Am C Every new beginning comes from some other beginning's end.. Yeah.. DO IT WITH INTRO CHORDS
|---7-----7------10----7-----7-----7------8------7-------| |------8-----8------8-----8-----8-----8------8------8----| |--------------------------------------------------------| |--------------------------------------------------------| |--------------------------------------------------------| |--------------------------------------------------------|
CHORUS: CHORUS: G D Am C I know who I want to take me home G D Am C I know who I want to take me home G D Am C I know who I want to take me home G D - Am - C - Bb Take me home
|----------------------------------------------| |----------------------------------------------| |-----------------7-7-------------------5-5----| |---5-5-X-X-X-X---7-7---7-7---X-X-X-X---5-5----| |---5-5-X-X-X-X---5-5---7-7---X-X-X-X---3-3----| |---3-3-X-X-X-X---------5-5---X-X-X-X----------|
BRIDGE:
|------------10-11-10-------------------| |-11---11-13----------13-11----11----11-| |---------------------------12----12----| |---------------------------------------| |---------------------------------------| |---------------------------------------|
|------------10-11-10-------------------| |-11---11-13----------13-11----11----11-| |---------------------------12----12----| |---------------------------------------| |---------------------------------------| |---------------------------------------|
|------------10-11-10--------------| |-11---11-13----------13-11--------| |---------------------------12-----| |----------------------------------| |----------------------------------| |----------------------------------|
|------------------------------------------| |------------------------------------------| |------------7-7-7-0-------------5-5-5-0---| |--5-5-5-0---7-7-7-0---7-7-7-0---5-5-5-0---| |--5-5-5-0---5-5-5-0---7-7-7-0---3-3-3-0---| |--3-3-3-0-------------5-5-5-0-------------|
|---7-----7------10----7-----7-----7------8------7-------| |------8-----8------8-----8-----8-----8------8------8----| |--------------------------------------------------------| |--------------------------------------------------------| |--------------------------------------------------------| |--------------------------------------------------------|
|------------------------------------------| |------------------------------------------| |------------7-7-7-0-------------5-5-5-0---| |--5-5-5-0---7-7-7-0---7-7-7-0---5-5-5-0---| |--5-5-5-0---5-5-5-0---7-7-7-0---3-3-3-0---| |--3-3-3-0-------------5-5-5-0-------------|
|---7-----7------10----7-----7-----7------8------7-------| |------8-----8------8-----8-----8-----8------8------8----| |--------------------------------------------------------| |--------------------------------------------------------| |--------------------------------------------------------| |--------------------------------------------------------|
GUITAR FILL
|-------------| |-------------| |--5-7-9-12---| |--X-X-X--X---| |--3-5-7-10---| |-------------|
|------------------------------------------| |------------------------------------------| |------------7-7-7-0-------------5-5-5-0---| |--5-5-5-0---7-7-7-0---7-7-7-0---5-5-5-0---| |--5-5-5-0---5-5-5-0---7-7-7-0---3-3-3-0---| |--3-3-3-0-------------5-5-5-0-------------|
GUITAR FILL
|--------------| |--------------| |-9-11-12-16---| |-X-X---X--X---| |-7-9--10-14---| |--------------|
|------------------------------------------| |------------------------------------------| |------------7-7-7-0-------------5-5-5-0---| |--5-5-5-0---7-7-7-0---7-7-7-0---5-5-5-0---| |--5-5-5-0---5-5-5-0---7-7-7-0---3-3-3-0---| |--3-3-3-0-------------5-5-5-0-------------|
GUITAR FILL
|-------------| |-------------| |--5-7-9-12---| |--X-X-X--X---| |--3-5-7-10---| |-------------|
|------------------------------------------| |------------------------------------------| |------------7-7-7-0-------------5-5-5-0---| |--5-5-5-0---7-7-7-0---7-7-7-0---5-5-5-0---| |--5-5-5-0---5-5-5-0---7-7-7-0---3-3-3-0---| |--3-3-3-0-------------5-5-5-0-------------|
GUITAR FILL
|-------------| |-------------| |--5-7-9-12---| |--X-X-X--X---| |--3-5-7-10---| |-------------|
|------------------------------------------| |------------------------------------------| |------------7-7-7-0-------------5-5-5-0---| |--5-5-5-0---7-7-7-0---7-7-7-0---5-5-5-0---| |--5-5-5-0---5-5-5-0---7-7-7-0---3-3-3-0---| |--3-3-3-0-------------5-5-5-0-------------|
GUITAR FILL
|-----------| |-----------| |--5-7-9----| |--X-X-X----| |--3-5-7----| |-----------|
G D Closing time Am C G D Am-BREAK Time for you to go out to the places you will be from CHORUS: G D Am C I know who I want to take me home G D Am C I know who I want to take me home G D Am C I know who I want to take me home G D - Am - C Take me home
|----------------------------------------------| |----------------------------------------------| |-----------------7-7-------------------5-5----| |---5-5-X-X-X-X---7-7---7-7---X-X-X-X---5-5----| |---5-5-X-X-X-X---5-5---7-7---X-X-X-X---3-3----| |---3-3-X-X-X-X---------5-5---X-X-X-X----------|
|----------------------------------------------| |----------------------------------------------| |-----------------7-7-------------------5-5----| |---5-5-X-X-X-X---7-7---7-7---X-X-X-X---5-5----| |---5-5-X-X-X-X---5-5---7-7---X-X-X-X---3-3----| |---3-3-X-X-X-X---------5-5---X-X-X-X----------|
|----------------------------------------------| |----------------------------------------------| |-----------------7-7-------------------5-5----| |---5-5-X-X-X-X---7-7---7-7---X-X-X-X---5-5----| |---5-5-X-X-X-X---5-5---7-7---X-X-X-X---3-3----| |---3-3-X-X-X-X---------5-5---X-X-X-X----------|
WITH A LITTLE BREAK DOWN
|---------------------------------------| |---------------------------------------| |-----------------7-7-----------5-5-5---| |---5-5-X-X-X-X---7-7---7-7-----5-5-5---| |---5-5-X-X-X-X---5-5---7-7-----3-3-3---| |---3-3-X-X-X-X---------5-5-------------|
CHORUS: G D Am C I know who I want to take me home G D Am C I know who I want to take me home G D Am C I know who I want to take me home G D - Am - C Take me home
|----------------------------------------------| |----------------------------------------------| |-----------------7-7-------------------5-5----| |---5-5-X-X-X-X---7-7---7-7---X-X-X-X---5-5----| |---5-5-X-X-X-X---5-5---7-7---X-X-X-X---3-3----| |---3-3-X-X-X-X---------5-5---X-X-X-X----------|
GUITAR FILL
|-------------| |-------------| |--5-7-9-12---| |--X-X-X--X---| |--3-5-7-10---| |-------------|
|----------------------------------------------| |----------------------------------------------| |-----------------7-7-------------------5-5----| |---5-5-X-X-X-X---7-7---7-7---X-X-X-X---5-5----| |---5-5-X-X-X-X---5-5---7-7---X-X-X-X---3-3----| |---3-3-X-X-X-X---------5-5---X-X-X-X----------|
GUITAR FILL
|--------------| |--------------| |-9-11-12-16---| |-X-X---X--X---| |-7-9--10-14---| |--------------|
|----------------------------------------------| |----------------------------------------------| |-----------------7-7-------------------5-5----| |---5-5-X-X-X-X---7-7---7-7---X-X-X-X---5-5----| |---5-5-X-X-X-X---5-5---7-7---X-X-X-X---3-3----| |---3-3-X-X-X-X---------5-5---X-X-X-X----------|
GUITAR FILL
|-------------| |-------------| |--5-7-9-12---| |--X-X-X--X---| |--3-5-7-10---| |-------------|
|----------------------------------------------| |----------------------------------------------| |-----------------7-7-------------------5-5----| |---5-5-X-X-X-X---7-7---7-7---X-X-X-X---5-5----| |---5-5-X-X-X-X---5-5---7-7---X-X-X-X---3-3----| |---3-3-X-X-X-X---------5-5---X-X-X-X----------|
GUITAR FILL
|--------------| |--------------| |-9-11-12-16---| |-X-X---X--X---| |-7-9--10-14---| |--------------|
OUTRO:
|----------------------------------------------| |----------------------------------------------| |-----------------7-7-------------------5-5----| |---5-5-X-X-X-X---7-7---7-7---X-X-X-X---5-5----| |---5-5-X-X-X-X---5-5---7-7---X-X-X-X---3-3----| |---3-3-X-X-X-X---------5-5---X-X-X-X----------|
GUITAR FILL
|-------------| |-------------| |--5-7-9-12---| |--X-X-X--X---| |--3-5-7-10---| |-------------|
|----------------------------------------------| |----------------------------------------------| |-----------------7-7-------------------5-5----| |---5-5-X-X-X-X---7-7---7-7---X-X-X-X---5-5----| |---5-5-X-X-X-X---5-5---7-7---X-X-X-X---3-3----| |---3-3-X-X-X-X---------5-5---X-X-X-X----------|
GUITAR FILL
|--------------| |--------------| |-9-11-12-16---| |-X-X---X--X---| |-7-9--10-14---| |--------------|
|----------------------------------------------| |----------------------------------------------| |-----------------7-7-------------------5-5----| |---5-5-X-X-X-X---7-7---7-7---X-X-X-X---5-5----| |---5-5-X-X-X-X---5-5---7-7---X-X-X-X---3-3----| |---3-3-X-X-X-X---------5-5---X-X-X-X----------|
GUITAR FILL
|-------------| |-------------| |--5-7-9-12---| |--X-X-X--X---| |--3-5-7-10---| |-------------|
G D Closing time Am C G D Am Every new beginning comes from some other beginning's end
|------------------------------------------| |------------------------------------------| |------------7-7-7-0-------------5-5-5-0---| |--5-5-5-0---7-7-7-0---7-7-7-0---5-5-5-0---| |--5-5-5-0---5-5-5-0---7-7-7-0---3-3-3-0---| |--3-3-3-0-------------5-5-5-0-------------|
|-------------------------| |-------------------------| |------------7-7-7-0------| |--5-5-5-0---7-7-7-0---7--| |--5-5-5-0---5-5-5-0---7--| |--3-3-3-0-------------5--|
Tap to rate this tab
 
# A B C D E F G H I J K L M N O P Q R S T U V W X Y Z