Senses Fail - Nj Fall Into The Atlantic tab

Title: NJ fall into the atlantic
Artist: Senses fail
Tuning: standard also try drop D

Intro: after PM..... and chorus

|------------------------------------------------------------------------||------------------------------------------------------------------------||------------------------------------------------------------------------||44444444444444--0000000000000000--7777777777777777--6666666666666666----|
verse 1
|------------------------------------------------------------------------||------------------------------------------------------------------------||------------------------------------------------------------------------||------------------------0----55h7---------------------------------------|
pre chorus:"coming straight from the wires.
|------------------------------------------------------------------------||------------------------------------------------------------------------||------------------------------------------------------------------------||44444444-0000-0-0000-0-4444444444----------------0000-0-0-0-000000------|
Chorus:
|------------------------------------------------------------------------||------------------------------------------------------------------------||------------------------------------------------------------------------||44444444444444--00x00000000000000--7777777777777777--6666666666666666---|
verse 2
|------------------------------------------------------------------------||------------------------------------------------------------------------||------------------------------------------------------------------------||4444-----------0000----------------4444-----------------0000------------|
pre chorus:"Watching romance from afar.."
|------------------------------------------------------------------------||------------------------------------------------------------------------||------------------------------------------------------------------------||44444444-0000-0-0000-0-4444444444----------------0000-0-0-0-000000------|
Chorus:
|------------------------------------------------------------------------||------------------------------------------------------------------------||------------------------------------------------------------------------||44444444444444--00x00000000000000--7777777777777777--6666666666666666---|
Brige 1 2x
|------------------------------------------------------------------------||------------------------------------------------------------------------||------------------------------------------------------------------------||------------------------------7/9--7-6----------------------------------|
Brige 2 2x It' plain to see, the wind beneath the trees.......|------------------------------------------------------------------------||------------------------------------------------------------------------||------------------------------------------------------------------------||44444444444444--0000000000000000--7777777777777777--6666666666666666----|
brige 3 2x
|------------------------------------------------------------------------||------------------------------------------------------------------------||------------------------------------------------------------------------||44444444444444--0000000000000000--7777777777777777--6666666666666666----|
end.... ginawa ko lang po etong tabs para my idea na kau panu i play ung NJ 90% sure aq na tama yan ilan beses ko nayan prinaktris para sa banda namen binabati ko nga pala mga banda sa 3rd year school of sacred heart academy of novaliches natin lahat ha especial mention nga pala mga bandmates q INSERTCOIN BAND(kaso mag papalit na kame ng name) V-Arcangel miguel
D-Russel lantacaG-Haaron cendicoG-Kim salanguitB-yours truly Christian Tanquilot po
Hi nga pala sa III-Tanguile,Narra,Mahogany,Molave,Acacia,Yakal, wahahahahahah kung nyo lang 2 wahahahahahaha hi din nga pala ky nicolas,abiel,matt L ,matt M, Ac,Rona, at sa teacher namen wahahahah ky rolando pa pala saka nicole hi din............. cge na bb "SANDRA" I L O V E U for any comment pls e-mail me at dis acct ctanquilot@yahoo.com chao bb.........
Tap to rate this tab
 
# A B C D E F G H I J K L M N O P Q R S T U V W X Y Z