Sentenced - The Suicider tab

                       Sentenced - THE SUICIDER
                      From the Album FROZEN
                           Copyright 1998 
                      Version 1.0 - JANUARY 2001

Transcribed by: Christoffer Hansson

For Questions, Comments, Newest Version, or Corrections contact
Christoffer at: Stormrider@stoned.com

Check Out Death Warp, With More Transcriptions On It:
  http://tiger.towson.edu/~dalvis1

..  - palm mute          /  - slide up to
  \  - slide down to      ~  - vibrato
  h  - hammer on          b  - bend
  p  - pull off            Suffixes for bend
                           ph - pinch harmonic
                            f - full bend    h - half bend
*  - see comment           r - release      t - tap bend
X  - percussion mute       ~ - vibrato bend
@  - slight palm mute     () - ghost note, sustained note

Tune Gtr to Normal tuning (EADGBE)
----------------------------------------
Suicider:

INTROLead: (2 times alone, then together with rhytm guitar)|---------------------------------------------------|---------------------------------------------------|---------------------------------------------------|--12-----12-----12-----12-----12-----12--13--15--13|-----10-----10-----10----11/13---13----------------|---------------------------------------------------
---------------------------------------------------|---------------------------------------------------|---------------------------------------------------|--12--10--12-----12-----12-----12--10--10--8--7--5-|-------------10-----10-----10--------8---8--6--5---|---------------------------------------------------|
Rhytm: (repeat 2 times) (00,12-00,25)|----------------------------------------------------------------||----------------------------------------------------------------||----------------------------------------------------------------||----------------------------------------------------------------||--------------------------------5-5-5-5-5-5-5-5-----------------||--3-3-3-3-3-3-3-6--6-6-6-6-6-6-6---------------5--5-5-5-5-5-5-5-|
Rhytm: (00,25-00,47)|----------------------------------------------------------------|----------------------------------------------------------------|----------------------------------------------------------------|----------------------------------------------------------------|--5-5-5-5-5-5-5-8--8-8-8-8-8-8-8-3-3-3-3-3-3-3-3-2-2-2-2-2-2-2-2|--3-3-3-3-3-3-3-6--6-6-6-6-6-6-6-1-1-1-1-1-1-1-1-0-0-0-0-0-0-0-0
------------------------------------------------------------------------------------------------------------------------------------------------------------------------------------------------------------------------------------------------------5-5-5-5-5-5--------5-5-5-5-5-5-5-8--8-8-8-8-8-8-8-3-3-3-3-3-3-3-3-3-3-3-3-3-3-1-3-1--3-3-3-3-3-3-3-6--6-6-6-6-6-6-6-1-1-1-1-1-1-1-1-------------------
|----------------------------------------------------------------|----------------------------------------------------------------|----------------------------------------------------------------|----------------------------------------------------------------|--5-5-5-5-5-5-5-8--8-8-8-8-8-8-8-3-3-3-3-3-3-3-3-2-2-2-2-2-2-2-2|--3-3-3-3-3-3-3-6--6-6-6-6-6-6-6-1-1-1-1-1-1-1-1-0-0-0-0-0-0-0-0
------------------------------------------------|------------------------------------------------|------------------------------------------------|------------------------------------------------|-5-5-5-5-5-5-5-8--8-8-8-8-8-8-8-3-3-3-3-3-3-3-3-|-3-3-3-3-3-3-3-6--6-6-6-6-6-6-6-1-1-1-1-1-1-1-1-|
Lead: (00,48-00,54)|--------------------------------||--------------------------------||--------------------------------||--------------------------------||---------------0-1-3------------||--0-1-3--------------------1--3-|
Rhytm: (00,48-00,54)|--------------------||--------------------||--------------------||--------------------||--3----------5------||--1----------3------|
Lead: (repeat 2 times) (00,54-01,06)|-------------------------||--8-8-8---8--------------||-------7-7-10-8-7--7-8-7-||-----------------10------||-------------------------||-------------------------|
Rhytm: (repeat 2 times) (00,54-01,06)|-------------------------------------------------------------||-------------------------------------------------------------||-------------------------------------------------------------||-------------------------------------------------------------||--------------------------------3-3-3-3-3-3-3-3--------------||--3-3-3-3-3-3-3-6--6-6-6-6-6-6-6---------------3-3-6-3-1-1-3-|
Rhytm: (01,07-01,29)|----------------------------------------------------------------|----------------------------------------------------------------|----------------------------------------------------------------|----------------------------------------------------------------|--5-5-5-5-5-5-5-8--8-8-8-8-8-8-8-3-3-3-3-3-3-3-3-2-2-2-2-2-2-2-2|--3-3-3-3-3-3-3-6--6-6-6-6-6-6-6-1-1-1-1-1-1-1-1-0-0-0-0-0-0-0-0
------------------------------------------------------------------------------------------------------------------------------------------------------------------------------------------------------------------------------------------------------5-5-5-5-5-5--------5-5-5-5-5-5-5-8--8-8-8-8-8-8-8-3-3-3-3-3-3-3-3-3-3-3-3-3-3-1-3-1--3-3-3-3-3-3-3-6--6-6-6-6-6-6-6-1-1-1-1-1-1-1-1-------------------
------------------------------------------------------------------------------------------------------------------------------------------------------------------------------------------------------------------------------------------------------------------5-5-5-5-5-5-5-8--8-8-8-8-8-8-8-3-3-3-3-3-3-3-3-2-2-2-2-2-2-2-2--3-3-3-3-3-3-3-6--6-6-6-6-6-6-6-1-1-1-1-1-1-1-1-0-0-0-0-0-0-0-0
------------------------------------------------|------------------------------------------------|------------------------------------------------|------------------------------------------------|-5-5-5-5-5-5-5-8--8-8-8-8-8-8-8-3-3-3-3-3-3-3-3-|-3-3-3-3-3-3-3-6--6-6-6-6-6-6-6-1-1-1-1-1-1-1-1-|
Lead: (01,30-01,35)|----------------------------||----------------------------||----------------------------||------2------3--------------||----2------3-----------1----||--0------1----------------3-|
Rhytm: (01,30-01,35)|--------------------||--------------------||--------------------||--------------------||--3----------5------||--1----------3------|
Lead: (repeat 4 times) (01,36-02,00)|-------------------------||--8-8-8---8--------------||-------7-7-10-8-7--7-8-7-||-----------------10------||-------------------------||-------------------------|
Rhytm: (repeat 4 times) (01,30-02,00)|-------------------------------------------------------------||-------------------------------------------------------------||-------------------------------------------------------------||-------------------------------------------------------------||--------------------------------3-3-3-3-3-3-3-3--------------||--3-3-3-3-3-3-3-6--6-6-6-6-6-6-6---------------3-3-6-3-1-1-3-|
I believe there are 3 guitars in this part.Lead: Guitar1 (play alone first 2 times) (02,01-02,38)|---------------------------------------------------|---------------------------------------------------|---------------------------------------------------|--12-----12-----12-----12-----12-----12--13--15--13|-----10-----10-----10----11/13---13----------------|---------------------------------------------------
---------------------------------------------------|---------------------------------------------------|---------------------------------------------------|--12--10--12-----12-----12-----12--10--10--8--7--5-|-------------10-----10-----10--------8---8--6--5---|---------------------------------------------------|
Rhytm: Guitar2 (Repeat 4 times) (02,13-02,38)|----------------------------------------------------------------||----------------------------------------------------------------||----------------------------------------------------------------||----------------------------------------------------------------||--------------------------------5-5-5-5-5-5-5-5-----------------||--3-3-3-3-3-3-3-6--6-6-6-6-6-6-6---------------5--5-5-5-5-5-5-5-|
SOLO: Guitar3 (repeat 2 times) (02,25-02,38) Lasttime:|-------------------------------------------------------------- |----||----------------------11--------------13--11------11/13--11--- |----||--10--10--12--10--10----12--10--10--10------12--10---------10- |-12-||----12----------12--12--------12--12-------------------------- |----||-------------------------------------------------------------- |----||-------------------------------------------------------------- |----|
Lead: (02,38-02,49) Last time:|-------------------- |------||-------------------- |------||-------------------- |------||------2------3------ |------||----2------3-------- |-1----||--0------1---------- |----3-|
Rhytm: (02,38-02,49) Last time:|-------------------- |-----||-------------------- |-----||-------------------- |-----||--2----------3------ |-----||--2----------3------ |-8-5-||--0----------1------ |-6-3-|
Lead: (repeat 4 times) (02,50-03,14)|-------------------------||--8-8-8---8--------------||-------7-7-10-8-7--7-8-7-||-----------------10------||-------------------------||-------------------------|
Rhytm: (repeat 4 times) (02,50-03,14)|-------------------------------------------------------------||-------------------------------------------------------------||-------------------------------------------------------------||--------------------------------3-3-3-3-3-3-3-3--------------||--5-5-5-5-5-5-5-8-8-8-8-8-8-8-8-3-3-3-3-3-3-3-3-----3------1-||--3-3-3-3-3-3-3-6-6-6-6-6-6-6-6-1-1-1-1-1-1-1-1-1-1--1-0-0---|
Lead: (03,15-03,40)|----------------------------------------------------------------------------------------||----------------------------------------------------------------------------------------||----------------------------------------------------------------------------------------||--12-----12-----12-----12-----12----12----12----12----10---10---10---10---------8-----7-||-----10-----10-----10----11/13---13----13----13----13----8----8----8----8----6-6-6-5-5--||----------------------------------------------------------------------------------------|
Rhytm: (03,15-03,40) Lasttime:|------------------------------------------------------------- |------||------------------------------------------------------------- |------||------------------------------------------------------------- |------||--------------------------------3-3-3-3-3-3-3-3-------------- |------||--5-5-5-5-5-5-5-8-8-8-8-8-8-8-8-3-3-3-3-3-3-3-3-----3------1- |-5-5-5||--3-3-3-3-3-3-3-6-6-6-6-6-6-6-6-1-1-1-1-1-1-1-1-1-1--1-0-0--- |-3-3-3|
Check Out Death Warp, With More Transcriptions On It: http://tiger.towson.edu/~dalvis1
Tap to rate this tab
 
# A B C D E F G H I J K L M N O P Q R S T U V W X Y Z