Sepultura - Manifest tab

intro|------------------------------||------------------------------||------------------------------||------------------------------||-6----------------------------||-4-----1-1-1--1-1-1-1--1-1-1--| . . . . . . . . . .
|----------------------------------------------------------||--21-21-21-21-21-21-21-21-21-21-21-21-21-21-21-21-21-17---||----------------------------------------------------------||----------------------------------------------------------||----------------------------------------------------------||----------------------------------------------------------|
|---------------------------------||---------------------------------||---------------------------------||--------------------3-----6------||-2-2--2-2-2--2-2----1-----4------||-0-0--0-0-0--0-0-----------------|
Guitar1|----------------------||----------------------||----------------------||----------------------||---6--5------7---8----||---4--3------5---6----|
| Guitar2|--------------------------------------------------------------------------------------||-21-21-21-21-21-21-21-21-21---21-17--21-17--21-17-21-21-21-21-21-21-21-17-21-21-21-21-||--------------------------------------------------------------------------------------||--------------------------------------------------------------------------------------||--------------------------------------------------------------------------------------||--------------------------------------------------------------------------------------|
|-----------------22---------------------||-22-22-22--21-21----21-21-21-21-21-21---||----------------------------------------||----------------------------------------||----------------------------------------||----------------------------------------|
|--------------------------------------------------||--------------------------------------------------||--------------------------------------------------||------------9--8------------------------9--8------||----6--5----7--6----------------6--5----7--6----2-||----4--3----------8--7----------4--3------------0-|
Guitar1|---|---------------------------||---|---------------------------||---|---------------------------||---|------------------3-3-3-3--||-2-|--3--2-2--5-5-5---1-1-1-1--||-0-|--1--0-0--3-3-3------------|
| guitar2|--------------------------------------------------||--------------------------------------------------||--14-14-14-14-14-15-13-13-14-14-14-14-14-14-12----||--------------------------------------------------||--------------------------------------------------||--------------------------------------------------|
|-------------------------------||-------------------------------||-------------------------------||--9-6-6-6-6-6-6-6--------------||--7-4-4-4-4-4-4-4--------------||-------------------------------|
|-----------------------------------------------------------------||-----------------------------------------------------------------||-14-14-14-14-14-13-13-13--14-14-14-14-12-14-12-14-14-14-14-14-13-||-----------------------------------------------------------------||-----------------------------------------------------------------||-----------------------------------------------------------------|
|--------------------------------------------------------------------------||--------------------------------------------------------------------------||-14-14-14-14-14-14-16-15-15-15-15-15-15-14-14-14--15-15-15-15-15-12-15-12-||--------------------------------------------------------------------------||--------------------------------------------------------------------------||--------------------------------------------------------------------------|
solo|--------------------------------------------------||-12-----------------------------------------------||-14--------/14-------/14-----/14-----14---14/12---||--------------------------------------------------||--------------------------------------------------||--------------------------------------------------|
|
|----------------------------------------------------------------------------||-15-15-15----15-15-15-16-------------------------1/3/1----------------------||----------12-------------------------------0/2/3-------3/2/0---0/2/0--------||-------------------------------------0/2/3-------------------3-------3/2/0--||-------------------------------0/1/3----------------------------------------||-------------------------0/1/3----------------------------------------------|
| trem bar|--------------------------------------------------||--------------------------------------------------||---10----5-----4------0---------------------------||--------------------------------------------------||--------------------------------------------------||--------------------------------------------------|
trem pick|-----------------------------------------------------||-----------------------------------------------------||---13-----15-----16---15---13----18---16---15---16---||-----------------------------------------------------||---11-----13-----14---13---11----16---14---13---14---||-----------------------------------------------------|
|
|--------------------------------------------------||--------------------------------------------------||--13---15-----16---15----13---11--12---11---8---9-||--------------------------------------------------||--11---13-----14---13----11---9---10---9----6---7-||--------------------------------------------------|
|-----------------------------------||-----------------------------------||-----------------------------------||-----------------------------------||---3----4--3------3----4--3--------||---1----2--1------1----2--1--------|
|-----------------------------------||-----------------------------------||-----------------------------------||-----------------------------------||---7-6----8-9--------7-6----8-9----||---5-4----6-7--------5-4----6-7----|
-great words from the great nick
Tap to rate this tab
 
# A B C D E F G H I J K L M N O P Q R S T U V W X Y Z