Gate 21 tab with lyrics by Serj Tankian - Easy chords and tabs for guitar

Serj Tankian – Gate 21 tab

Couldn't find rock remix tab anywhere so I made it.. or at least tried...
Feel free to comment and suggest corrections

Tuning Drop D  DADGBE

/ Slide
* Palm mute

|--------------------------------------||--------------------------------------||--------------------------------------||-----------------7-8-8/10----8-7-7----||-/5----6-8-8/10-----------------------||--------------------------------------| (x3)
|-----------------------------------------||-----------------------------------------||----------------------------------7------||-----------------7-8-8/10----8-7--7------||-/5----6-8-8/10-------------------5-(x16)||-----------------------------------------| *Verse:
|------------------------------------------------------------------||------------------------------------------------------------------||------------------------------------------------------------------||-5-5-5-5-5-5-5-5-1-1-1-1-1-1-1-1-3-3-3-3-3-3-3-3-0-0-0-0-0-0-0-0--||-5-5-5-5-5-5-5-5-1-1-1-1-1-1-1-1-3-3-3-3-3-3-3-3-0-0-0-0-0-0-0-0--||-5-5-5-5-5-5-5-5-1-1-1-1-1-1-1-1-3-3-3-3-3-3-3-3-0-0-0-0-0-0-0-0--| (x4) * * * * * * * * * * * * * * * * * * * * * * * * * * * * * * * *
fill at 0:56|-------------------||--/15--14--12------||-------------------||-------------------||-------------------||-------------------|
Chorus:
|-------------------------------------------------||-------------------------------------------------||-------------------------------------------------||-5--5--5----3--3--3----1--1--1----0--0--0--------||-5--5--5----3--3--3----1--1--1----0--0--0--------||-5--5--5----3--3--3----1--1--1----0--0--0--------|
|---------------------------------------------------------------||---------------------------------------------------------------||---------------------------------------------------------------||-5--5--5----3--3--3----1--1--1----0--0--0------10h12p10--8--7--||-5--5--5----3--3--3----1--1--1----0--0--0------10h12p10--8--7--||-5--5--5----3--3--3----1--1--1----0--0--0------10h12p10--8--7--|
|------------------------------------------------------------------||------------------------------------------------------------------||------------------------------------------------------------------||-5-5-5-5-5-5-5-5-1-1-1-1-1-1-1-1-3-3-3-3-3-3-3-3-0-0-0-0-0-0-0-0--||-5-5-5-5-5-5-5-5-1-1-1-1-1-1-1-1-3-3-3-3-3-3-3-3-0-0-0-0-0-0-0-0--||-5-5-5-5-5-5-5-5-1-1-1-1-1-1-1-1-3-3-3-3-3-3-3-3-0-0-0-0-0-0-0-0--|
fill:|-------------------||--/15--14--12------||-------------------||-------------------||-------------------||-------------------|
|------------------------------------------------------------------||------------------------------------------------------------------||------------------------------------------------------------------||-5-5-5-5-5-5-5-5-1-1-1-1-1-1-1-1-3-3-3-3-3-3-3-3-0-0-0-0-0-0-0-0--||-5-5-5-5-5-5-5-5-1-1-1-1-1-1-1-1-3-3-3-3-3-3-3-3-0-0-0-0-0-0-0-0--||-5-5-5-5-5-5-5-5-1-1-1-1-1-1-1-1-3-3-3-3-3-3-3-3-0-0-0-0-0-0-0-0--|
|--------------------||--------------------||--------------------||--10h12p10--8--7----||--10h12p10--8--7----||--10h12p10--8--7----|
Solo (could be wrong...)
|---------------------------------------------------------------------------||--/8--/11--/8--/6--/8--/11--/8--/6--/8--/11--/13--/15--/13--/11--/10--/10--||---------------------------------------------------------------------------||---------------------------------------------------------------------------||---------------------------------------------------------------------------||---------------------------------------------------------------------------|
|---------------------------------------------------------------------------||--/8--/11--/8--/6--/8--/11--/13--/11--/8--/6--/4--/6--/3--/20--/20--/20~---||---------------------------------------------------------------------------||---------------------------------------------------------------------------||---------------------------------------------------------------------------||---------------------------------------------------------------------------|
Verse:
|----------------------------------||----------------------------------||----------------------------------||--5--------1--------3--------0----||--5--------1--------3--------0----||--5--------1--------3--------0----|
|------------------------------------------------------------------||------------------------------------------------------------------||------------------------------------------------------------------||-5-5-5-5-5-5-5-5-1-1-1-1-1-1-1-1-3-3-3-3-3-3-3-3-0-0-0-0-0-0-0-0--||-5-5-5-5-5-5-5-5-1-1-1-1-1-1-1-1-3-3-3-3-3-3-3-3-0-0-0-0-0-0-0-0--||-5-5-5-5-5-5-5-5-1-1-1-1-1-1-1-1-3-3-3-3-3-3-3-3-0-0-0-0-0-0-0-0--| * * * * * * * * * * * * * * * * * * * * * * * * * * * * * * * *
Chorus:
|-------------------------------------------------||-------------------------------------------------||-------------------------------------------------||-5--5--5----3--3--3----1--1--1----0--0--0--------||-5--5--5----3--3--3----1--1--1----0--0--0--------||-5--5--5----3--3--3----1--1--1----0--0--0--------|
|---------------------------------------------------------------||---------------------------------------------------------------||---------------------------------------------------------------||-5--5--5----3--3--3----1--1--1----0--0--0------10h12p10--8--7--||-5--5--5----3--3--3----1--1--1----0--0--0------10h12p10--8--7--||-5--5--5----3--3--3----1--1--1----0--0--0------10h12p10--8--7--|
|------------------------------------------------------------------||------------------------------------------------------------------||------------------------------------------------------------------||-5-5-5-5-5-5-5-5-1-1-1-1-1-1-1-1-3-3-3-3-3-3-3-3-0-0-0-0-0-0-0-0--||-5-5-5-5-5-5-5-5-1-1-1-1-1-1-1-1-3-3-3-3-3-3-3-3-0-0-0-0-0-0-0-0--||-5-5-5-5-5-5-5-5-1-1-1-1-1-1-1-1-3-3-3-3-3-3-3-3-0-0-0-0-0-0-0-0--|
fill:|-------------------||--/15--14--12------||-------------------||-------------------||-------------------||-------------------|
|------------------------------------------------------------------||------------------------------------------------------------------||------------------------------------------------------------------||-5-5-5-5-5-5-5-5-1-1-1-1-1-1-1-1-3-3-3-3-3-3-3-3-0-0-0-0-0-0-0-0--||-5-5-5-5-5-5-5-5-1-1-1-1-1-1-1-1-3-3-3-3-3-3-3-3-0-0-0-0-0-0-0-0--||-5-5-5-5-5-5-5-5-1-1-1-1-1-1-1-1-3-3-3-3-3-3-3-3-0-0-0-0-0-0-0-0--|
Play chorus until the song ends
Please rate this tab:
x1.0