Serj Tankian – Cornucopia tab

This is my first tab made by ear, but i did my best.
If you not sure how to play this song properly according to these tabs there is my cover on yt. 
Just find my channel urs882, and then video.
Hope you like it!
Enjoy (:

Tabbed by: urs882



intro


let ring|-----------------------------------------------------||----10-----10-----10-----10------8----8----8----8----||------10-10--10-10--10-10--10-10--9-9--9-9--9-9--9-9-||-----------------------------------------------------||-----------------------------------------------------||-----------------------------------------------------| P.M.----|
|------------------------------------------------||-10-----10-----10-----10------8----8----8----8--| |---10-10--10-10--10-10--10-10--9-9--9-9--9-9----||------------------------------------------------||------------------------------------------------||------------------------------------------------|
chorus
|--------------------------------------------------||--------------------------------------------------||----------13-13-13-13-13-13-----------13-13-13-13-||-4-4-4-4---------------------4-4-4-4--------------||-4-4-4-4--11-11-11-11-11-11--2-2-2-2--11-11-11-11-||-2-2-2-2---------------------2-2-2-2--------------|
x2
|---------------------------||---------------------------||----------8-9-9-9-9-9-8-8--| |-4-4-4-4-------------------||-4-4-4-4--5-7-7-7-7-7-5-5--||-2-2-2-2-------------------|
verse
|----------------------------------------------------------------------||----------------------------------------------------------------------||---------------8-8--6-6-6-6-6-6--8-8----------------------------------| x3|--8-8-8-8-8-8--8-8--6-6-6-6-6-6--8-8--4-4-4-4-4-4-4-4-4-4-4-4-4-4-4-4-||--8-8-8-8-8-8--6-6--4-4-4-4-4-4--6-6--4-4-4-4-4-4-4-4-4-4-4-4-4-4-4-4-||--6-6-6-6-6-6-------------------------2-2-2-2-2-2-2-2-2-2-2-2-2-2-2-2-|
P.M.-------------------------------------------------------------------|
|----------------------------------------------------------------------||----------------------------------------------------------------------||---------------8-8--6-6-6-6-6-6--8-8----------------------------------||--8-8-8-8-8-8--8-8--6-6-6-6-6-6--8-8--4-4-4-4-4-4-4-4-4-4-4-4-4-4-4-4-||--8-8-8-8-8-8--6-6--4-4-4-4-4-4--6-6--4-4-4-4-4-4-4-4-4-4-4-4-4-4-4-4-||--6-6-6-6-6-6-------------------------2-2-2-2-2-2-2-2-2-2-2-2-2-2-2-2-|
P.M.----------------------------------------------------------| pre-chorus
let ring|-------------||-------------||-------------| x4|-10-10-10-10-||-8--7--6--5--||-------------|
chorus
|--------------------------------------------------||--------------------------------------------------||----------13-13-13-13-13-13-----------13-13-13-13-||-4-4-4-4---------------------4-4-4-4--------------||-4-4-4-4--11-11-11-11-11-11--2-2-2-2--11-11-11-11-||-2-2-2-2---------------------2-2-2-2--------------|
x4
|---------------------------||---------------------------||----------8-9-9-9-9-9-8-8--| |-4-4-4-4-------------------||-4-4-4-4--5-7-7-7-7-7-5-5--||-2-2-2-2-------------------|
verse
|----------------------------------------------------------------------||----------------------------------------------------------------------||---------------8-8--6-6-6-6-6-6--8-8----------------------------------| |--8-8-8-8-8-8--8-8--6-6-6-6-6-6--8-8--4-4-4-4-4-4-4-4-4-4-4-4-4-4-4-4-||--8-8-8-8-8-8--6-6--4-4-4-4-4-4--6-6--4-4-4-4-4-4-4-4-4-4-4-4-4-4-4-4-||--6-6-6-6-6-6-------------------------2-2-2-2-2-2-2-2-2-2-2-2-2-2-2-2-|
P.M.-------------------------------------------------------------------|
|----------------------------------------------------------------------||----------------------------------------------------------------------||---------------8-8--6-6-6-6-6-6--8-8----------------------------------||--8-8-8-8-8-8--8-8--6-6-6-6-6-6--8-8--4-4-4-4-4-4-4-4-4-4-4-4-4-4-4-4-||--8-8-8-8-8-8--6-6--4-4-4-4-4-4--6-6--4-4-4-4-4-4-4-4-4-4-4-4-4-4-4-4-||--6-6-6-6-6-6-------------------------2-2-2-2-2-2-2-2-2-2-2-2-2-2-2-2-|
P.M.----------------------------------------------------------| pre-chorus
let ring|-------------||-------------||-------------| x4|-10-10-10-10-| |-8--7--6--5--||-------------|
chorus
|--------------------------------------------------||--------------------------------------------------||----------13-13-13-13-13-13-----------13-13-13-13-||-4-4-4-4---------------------4-4-4-4--------------||-4-4-4-4--11-11-11-11-11-11--2-2-2-2--11-11-11-11-||-2-2-2-2---------------------2-2-2-2--------------|
x4
|---------------------------||---------------------------||----------8-9-9-9-9-9-8-8--| |-4-4-4-4-------------------||-4-4-4-4--5-7-7-7-7-7-5-5--||-2-2-2-2-------------------|
bridge
|-------------------------------------------------------------||-------------------------------------------------------------||-------------------------------------------------------------| x2|-5-5--5-5-6----5-5--5-3-3-3-3----5-5--5-5-6---5-5--5-8-8-8-8-||-5-5--5-5-6----5-5--5-3-3-3-3----5-5--5-5-6---5-5--5-8-8-8-8-||-3-3--3-3-4----3-3--3-1-1-1-1----3-3--3-3-4---3-3--3-6-6-6-6-|
let ring
|--------------------------------------------------||-10-----10-----10-----10------8----8----8----8----||---10-10--10-10--10-10--10-10--9-9--9-9--9-9--9-9-||--------------------------------------------------||--------------------------------------------------||--------------------------------------------------|
x6
|------------------------------------------------||-10-----10-----10-----10------8----8----8----8--| |---10-10--10-10--10-10--10-10--9-9--9-9--9-9----| |------------------------------------------------||------------------------------------------------||------------------------------------------------|
|-----------------------------------------||-----------------------------------------||-6-6-6-6-8-8-8-8-10-10-10-10-10-10-10-10-| x4|--8-8-8-8-6-6-6-6--8--8--8--8--8--8--8--8||-----------------------------------------||-----------------------------------------|
P.M.--------------------------------------| chorus
|--------------------------------------------------||--------------------------------------------------||----------13-13-13-13-13-13-----------13-13-13-13-||-4-4-4-4---------------------4-4-4-4--------------||-4-4-4-4--11-11-11-11-11-11--2-2-2-2--11-11-11-11-||-2-2-2-2---------------------2-2-2-2--------------|
x4|---------------------------||---------------------------||----------8-9-9-9-9-9-8-8--| |-4-4-4-4-------------------||-4-4-4-4--5-7-7-7-7-7-5-5--||-2-2-2-2-------------------|
outro
let ring|-------------------||-------------------||-------------------||-10-10-10-10-10-10-| |-8--7--6--5--8--7--||-------------------|
Please rate this tab:
x1.0