Seven Year Kismet - Drag The Corpses tab

Artist: Seven Year Kismet

Song: Drag The Corpses

Album: Not Without Incident
       
Email: Brandnew789@hotmail.com

Website: www.myspace.com/sykmusic

Last Update: 01/15/05

Music by: Luke Sohn, Shannon Wellby, Jack Price, Richard Kane & James Everson

Tabbed By: Seven Year Kismet

Tuning - Drop B

PLEASE NOTE: This TAB is only one guitar as this is now how they play live
 and is different from the album tabbing. The band now has one guitarist but use two 
cabs and heads and pan live with a pedal giving the affect of 2 guitars.

----------------
Key
* Pinch Harmonic
TP Tremolo Picking
- Palm Mute
h Hammer on 
p Pull Off
/ Slide 
----------------

Guitar 1 (0:01)|--------------------------||-----------------------------||--------------------------||-----------------------------||--------------------------||-----------------------------||--------------------------||-0-----4---3-----------------||--0-0-0-0----000---00--00-||-0-----4---3-----------------||--0-0-0-0----000---00--00-||-0-----4---3----0-4-3-1-2----|
*|---------------------------------------------------------||---------------------------------------------------------||---------------------------------------------------------||---------------------------4h7p4-----3h6p3-----2h5p2-----||-------5h8p3-----4h7p4-----------------------------------||-0-0----------0---------0---------0---------0--------00--|PM----- - - - - --
|-------------------------------------------------------||-------------------------------------------------------||-------------------------------------------------------||----------------------5h8p5-----7h10p7-----8h11p8------||--5h8p5-----4h7p4--------------------------------------||---------0---------0---------0----------0--------------|PM - - - -
|-------------------------------------------------------||-------------------------------------------------------||-------------------------------------------------------||-------------------------------------------------------||--------------4---3---1---------------3---5---6--------||--0---6---3--------------0---6---3---------------------|TP TP TP TP TP TP TP TP TP TP TP TP TP
BASS - Break|---------------||---------------||---------------||---------------||---------------||-00-0-000-000--|
Guitar Comes In|----------------||----------------||----------------||----------------||---3--7--6--4---||---3--7--6--4---|
|-------------------------------------------------------||-------------------------------------------------------||-------------------------------------------------------||--------------10-14-13-11------------------------------||---------------------------------------10-14-13-11-----||--0-0-00000----------------0-0-00000-------------------| PM - - ----- TP TP TP TP - - ----- TP TP TP TP
|-------------------------------------------------------||-------------------------------------------------------||-------------------------------------------------------||--------------7-11-10-8--------------------------------||---------------------------------------7-11-10-8-------||--0-0-00000----------------0-0-00000-------------------| PM-- - ----- TP TP TP TP - - ----- TP TP TP TP
|-----------------------------------------------------------||-----------------------------------------------------------||-----------------------------------------------------------||-----------------------------------------------------------| x|-----------------------------------------------------------||--0--8--5--7--4--6--3--1--0--8--5--7---00-0-0-00-0-0-00-0--| TP TP TP TP TP TP TP TP TP TP TP TP -- - - -- - - -- -
|-----------------------------------------------------------||-----------------------------------------------------------||--10---101010-/--9---9-9-9-/--12---12-12-12-/--10----------||--x----x-x-x--/--x---x-x-x-/--x-----x--x--x-/---x----------| |--8----8-8-8--/--7---7-7-7-/--10---10-10-10-/---8----------||-----------------------------------------------------------|
|-------------------------------------------------------||-------------------------------------------------------||--7---7-7-7-/--5---5-5-5-/--9---9-9-9-/--7-------------||--x---x-x-x-/--x---x-x-x-/--x---x-x-x-/--x-------------| |--5---5-5-5-/--3---3-3-3-/--7---7-7-7-/--5-------------||-------------------------------------------------------|
STRUM|------------------------------------||------------------------------------||---10------9------12-----10---------||---x-------x------x------x----------| |---8-------7------10-----8----------||------------------------------------|
|-----------------------------------------------------------------||-----------------------------------------------------------------||-----------------------------------------------------------------||------------------------------------------------1-----1----------| |------------------------------------------------1-0-1-1-0-1------||--0---0---000-----0---0---000--00--0---0---000----0-1---0-1------| PM - - --- - - --- -- - - ---
Breakdown:
|-----------------------------------------------------------------||-----------------------------------------------------------------||-----------------------------------------------------------------||--------------------------------------1-----1--------------------| |--0-0--000---0-0--000------0-0--000---1-0-1-1-0-1----------------||--0-0--000---0-0--000--00--0-0--000-----0-1---0-1----------------| PM - - --- - - --- -- - - ---
|-------------------------------------------||-------------------------------------------||-----10---9----12---10---------------------||-----x----x----x----x----1-----1-----------| |-----8----7----10---8----1-0-1-1-0-1-------||---------------------------0-1---0-1-------|
|------------------------| |------------------------||------------------------||---------1--------------| x 4 |------------------------||-0-3-1-2---2-1-2--------| PM- - - - - - -
|------------------------||------------------------||------------------------||---------1-2-1----------| x 4 |------------------------||-0-3-1-2-------2--------| PM- - - - -
|--------------------------||--------------------------||--------------------------| Repeat to Finish/|--------------------------||--0-0-0-0----000---00--00-||--0-0-0-0----000---00--00-|PM - - - - --- -- --
Tap to rate this tab
 
# A B C D E F G H I J K L M N O P Q R S T U V W X Y Z