Seven Year Kismet - The Shame Of Grace tab

Artist: Seven Year Kismet

Song: The Shame Of Grace

Album: Not Without Incident

Email: Brandnew789@hotmail.com

Music by: Luke Sohn, Shannon Wellby, Jack Price, Richard Kane & James Everson

Tabbed By  Seven Year Kismet

Tuning - Drop B

PLEASE NOTE: This TAB is only one guitar as this is now how they play live and is 
from the album tabbing. The band now has one guitarist but use two cabs and heads and pan live 
a pedal giving the affect of 2 guitars.

----------------
Key
TP Tremolo Picking
- Palm Mute
b bend
/ Slide
----------------

Guitar 1 (0:01)

|--------------------------------------------------------------||--------------------------------------------------------------||--------------------------------------------------------------||--0----6----3----9----0---------------0----6----3----9----0---||--0----6----3----9----0---------------0----6----3----9----0---||--0----6----3----9----0---6---3---9---0----6----3----9----0---| TP TP TP
|---------------------| |-----------------||---------------------| |-----------------||---------------------| |-----------------| X3|---------------------| |-----------------||-000000--666--333--9-| |-----------------||-000000--666--333--9-| |--0---6---3---9--|Pm-------------------------------------------| TP TP TP TP
|---------------------| |------------------------------------||---------------------| |------------------------------------||---------------------| |------------------------------------| X3|-----6---3---9-------| |------------------------------------||-----6---3---9-------| |------------------------------------||-0---6---3---9-------| |--0---6---3---9---12---9------------|
TP TP TP TP TP TP TP|---------------------||---------------------||---------------------||-----6---3---9-------||-----6---3---9-------||-0---6---3---9-------| TP
|-------------------------| |-----------------------------------||-------------------------| |-----------------------------------||-------------------------| |-----------------------------------||---------1---------------| X2 |-----------1--------------------||-0-2-1-2-1-2-0-0--0-0-0--| |-2-1-0-1-2-1-2-0-0--1-1-1----------||-0-2-1-2---2-0-1--1-1-1--| |-2-1-0-1-2---2-0-1--1-1-1----------|PM- - - - - - - - - - - - - - - - - - - - -
|-------------------------| |-----------------------------------||-------------------------| |-----------------------------------||-------------------------| |-----------------------------------||---------1---------------| X2 |---------1----------------------||-0-2-1-2-1-2-0-0-------1-| |-0-2-1-2-1-2-0---------------------||-0-2-1-2---2-0-1-0-1-2---| |-0-2-1-2---2-0-1-/-13--------------|PM- - - - - - - - - - - - - - - -
|-------------------------| |-----------------------------------||-------------------------| |-----------------------------------||-------------------------| |-----------------------------------||---------1---------------| X3 |--------------------------------||-0-2-1-2-1-2-0-1-0-1-/-4-| |---------1-------------------------||-0-2-1-2---2-0-1-0-1-/-4-| |-0-2-1-2---2-0-1-0-1/4-------------|
|----------------------------------------------------------------||----------------------------------------------------------------||-------5----------5-5----------5---------------------------5----||-0----4-4---0----4-4-4---0----4-4---0---------------------4-4---||-0---4------0---4--------0---4------0--------------------4------||-0--4-------0--4---------0--4-------0--00--000--0--000--4-------|
|--------------------------------------||--------------------------------------||--------------------------------------||--------------------------------------| X3|-----------------------4-/-9----------||-0--00--000--0--000--4-------10-4-----|PM- -- --- - --- - -
|--------------------------------------||--------------------------------------||--------------------------------------||--------------------------------------||-----------------------4-/-9----------||-0--00--000--0--000--4-------10-0-----|PM- -- --- - --- - - Let Ring
|------------------------------------------------||------------------------------------------------||------------------------------------------------||------------------------------------------------||------------------------------------------------||-00-0-0-00-0-0--00-0--66-6-6--33-3-3--99-9------|PM-- - - -- - - -- - -- - - -- - - -- -
|-----------------------------||-----------------------------||-----------------------------||----------------------0------||----------------------0------||-00-0-0-00-0-0--0000--0------|PM-- - - -- - - ---- -
|---------------------------------------------------------||---------------------------------------------------------||---------------------------------------------------------||---------------------------------------------------------| X3|-------1-----------4-----------1-------------------------||-0-1-2---2-1-4-2-1---2-1-0-1-2---2-1-4-2-1-0-1-2---------|
|---------------------------------------------------------||---------------------------------------------------------||---------------------------------------------------------||---------------------------------------------------------||-------1-----------4-----------1-------------------------||-0-1-2---2-1-4-2-1---2-1--0-1-2---2-1--4-2-1-4-6-7-------|
|---------------------------------------------------------||---------------------------------------------------------||---------------------------------------------------------||---------------------------------------------------------||-------1------------4------------1-------4---------------||-0-1-2----2-1-4-2-1---2-1--0-1-2---0-1-2-----------------|PM- - - - - - - - - - - - - - - -
|----------------------------------------------------------||----------------------------------------------------------||----------------------------------------------------------||-0---0000000--0--000-0-0-0--0000----0000000---000---0000--||-0--------------------------------------------------------||-0--------------------------------------------------------|PM ------- - --- - - - ---- ------- --- ----
|----------------------------------------------------------||----------------------------------------------------------||----------------------------------------------------------||----------------------------------------------------------||----------------------------------------------------------||-0000000--0--000--000--0-0-0-0----0000000---000---0-0-0-0-|PM------- - --- --- - - - - ------- --- - - - -
|--------------------------------------------------------------||--------------------------------------------------------------||--------------------------------------------------------------||--------------------------------------------------------------||--------------------------------------------------------------||-0000000-1b--0-000-0-0-0--0-0-0-0---0000000-1b--000--0-0-0-0--|PM------- - --- - - - - - - - ------- --- - - - -
|---------------------------------------------------------||---------------------------------------------------------||---------------------------------------------------------||---------------------------------------------------------| X 4|---------------------------------------------------------||-0-0-0-0-0-0-0----0-0-0-0-0-0-0----0-0--0-0--------------|PM- - - - - - - - - - - - - - - - - -
|---------------------------| |-------------------------------------||---------------------------| |-------------------------------------||---------------------------| |-------------------------------------||---------------------------| |-------------------------------------||-------1-----------4-------| |-------1-----------4-----------------||-0-1-2---2-1-4-2-1---2-1---| |-0-1-2---2-1-4-2-1---2-1--0000--0000-|PM- - - - - - - - - - PM- - - - - -
Tap to rate this tab
 
# A B C D E F G H I J K L M N O P Q R S T U V W X Y Z