Seven Year Kismet - Behold The Eve Of Ruin tab

Artist: Seven Year Kismet

Song: The Shame Of Grace

Album: Not Without Incident

Email: Brandnew789@hotmail.com

Music by: Luke Sohn, Shannon Wellby, Jack Price, Richard Kane & James Everson

Tabbed By  Seven Year Kismet

Tuning - Drop B


----------------
Key
TP Tremolo Picking
- Palm Mute
b bend
/ Slide
----------------

Guitar(0:01)

|--------------------------------------------------------------||--------------------------------------------------------------||--------------------------------------------------------------||--------------------------------------------------------------||--------------------------------------------------------------||--1-0-1-0-1-00000000------------------------------------------| . . ........
|--------------------------------------------------------------|x2|--------------------------------------------------------------||--------------------------------------------------------------||--------------------------------------------------------------||--2-2-2-2-2-22222222-2-2-2-2-2-22222-2-2----------------------||--1-1-1-1-1-11111111-1-1-1-1-1-11111-1-1----------------------| . . . . . ........ . . . . . ..... . .
|--------------------------------------------------------------|x2|--------------------------------------------------------------||--------------------------------------------------------------||--------------------------------------------------------------||--0-0-0-0-0-00000000-0-0-0-0-0-00000--------------------------||--1-1-1-1-1-11111111-1-1-1-1-1-11111--------------------------| . . . . . ........ . . . . . .....
|---------------||---------------||---------------||---------------||--4-----3------||----5-4---4-3--|
|--------------------------------------------------------------------------||--------------------------------------------------------------------------||--------------------------------------------------------------------------||--------------------------------------------------------------------------||--4-------4-------4-------4-------3-------3-------3-------3-------4-------||----5-4-2---5-4-2---5-4-2---5-4-2---4-3-1---4-3-1---4-3-1---4-3-1---5-4-2-|
. . . . . . . . . . . . . . . . . . . . . . . . . . .------------------------|x2------------------------|------------------------|------------------------|-6-------3-------3------|---7-6-4---4-3-1---4-3-1|
|-----------------|after 1st |------------------|after 2nd|-----------------|time |------------------|time|-----------------| |------------------||-----------------| |------------------||-------3-6-3-2-3-| |------------------||-0-1-4-----------| |-0-1-4-3-6-3-2-1--|
|-------------------------------------------------|x2 |-----------|after 1st-||-------------------------------------------------| |----------------------||-------------------------------------------------| |----------------------||-------------------------------------------------| |----------------------||---------00-----------------------------00-------| |----------------------||-1-1-1-1----1-1-1--1-111-1-111--1-1-1-1----1-1-1-| |-1-1111111111111111---| . . . . .. . . . . ... . ... . . . . .. . . . . ................
|-----------------------|after 2nd|-----------------------||-----------------------||------1-------4--------||------1-------4--------||-0000-1--0000-4--------| .... ....
|--------------------------------------------------||--------------------------------------------------||--------------------------------------------------||--------------------------------------------------||--------2---1---------------------------2---1-----||--3-000---0---0-2-00-3-0-1-0-0h1--3-000---0---0-2-| ... . . .. . . ...
-------------------------------------------------|-------------------------------------------------|-------------------------------------------------|-------------------------------------------------|--1---------------------------2-1----------------|0---0-2-00-3-0-1-0-1h4--3-000-----0-2-00-3-0-1-0-|. . .. . . ... . .. . .
--------------------------------------|--------------------------------------|--------------------------------------|--------------------------------------|------------2---1----------2----------|-0h1--3-000---0---00-3-2-1---3-2-1-0--| ... . .. . . . . . . .
|----------------------------------------------------------||----------------------------------------------------------||----------------------------------------------------------||----------------------------------------------------------||----------------------------------------------------------||--000-000-000-000-111-000-000-000-000-000-111-444-000-000-| ... ... ... ... ... ... ... ... ... ... ... ... ... ...
----------------------------|----------------------------|----------------------------|----------------------------|----------------------------|000-000-111-000-000-000-000-|... ... ... ... ... ... ...
|-----------------------------------------------------------||-----------------------------------------------------------||-----------------------------------------------------------||-----------------------------------------------------------||-----------------------------------------------------------||--000-000-000-000-111-00000000-000-000-000-111-000-000-000-| ... ... ... ... ... ........ ... ... ... ... ... ... ...
--------------------------------------------|--------------------------------------------|--------------------------------------------|--------------------------------------------|--------------------------------------------|000-000-111-00000000-000-000--000-111-444---|... ... ... ........ ... ... ... ... ...
|-----------------------------------------------------------------------|x3|-----------------------------------------------------------------------||-----------------------------------------------------------------------||-----------------------------------------------------------------------||------222-111-------------------------222-111-------------------0h3h6--||--333---------222-333-111-000-111-333---------222-333-111-0h1h4--------| ... ... ... ... ... ... ... ... ... ... ... ... ... ...
|-------------------------------------------------------||-------------------------------------------------------||-------------------------------------------------------||-------------------------------------------------------||----2-1----------------2-1----------------0-3-6-9-6-0--||--3-----2-3-1-0-2ph--3-----2--0-1-4-7-4-0--------------| . . . . . . . . . . . .
|---------------------------------------------------------------||---------------------------------------------------------------||---------------------------------------------------------------||---------------------------------------------------------------||--1-0--00-00-00-00-00-00-00--00-0000-1-0-00-00-00-00--2---4---||--1-0--11-11-11-11-11-11-11--11-1111-1-0--11-11-11-11----3---0-| .. .. .. .. .. .. .. .. .... .. .. .. ..
Tap to rate this tab
 
# A B C D E F G H I J K L M N O P Q R S T U V W X Y Z