Sevendust - Broken Down tab

Tunning E Standard

INTRO (First part)

|------------------------------------||------------------------------------||------------------------------------||-2-2-2-2-3-3------------------------|(4x)
INTRO (Second Part)
Guitar I(solo)|------------------------------------||--------1---------------------------||-1-3--------------------------------||----1-3-----------------------------||------------------------------------||------------------------------------|(4x)
Guitar II
|------------------------------------||------------------------------------||---------4-4-7-7--------------------||-4-4-2-2-4-4-7-7--------------------||-2-2-2-2-2-2-5-5--------------------||-2-2-0-0----------------------------|
|------------------------------------||------------------------------------||---------4-4------------------------||-4-4-2-2-4-4-5-5--------------------||-2-2-2-2-2-2-5-5--------------------||-2-2-0-0-----3-3--------------------|
VERSE|--------5-------------------------3---2-------2---0--------||-------------------------------------------0---------------||-4-----------4-----------------------------------------7---| |-----------------------------------------------------------||-----------------------------------------------------------||-----------------------------------------------------------|
|--------5-------------------------3---2-------0-/-2--------||-------------------------------------------0---------------||-4-----------4---------------------------------------7-----| 2|-----------------------------------------------------------||-----------------------------------------------------------||-----------------------------------------------------------|
|--------5-----------------------------5--------------------||-----------------------------------------------------------||-4-----------4------------------4-----------4--------------| 4|-----------------------------------------------------------||-----------------------------------------------------------||-----------------------------------------------------------|
Chorus
Guitar I(solo)|------------------------------------||--------1---------------------------||-1-3--------------------------------||----1-3-----------------------------||------------------------------------||------------------------------------|(4x)
Guitar II
|------------------------------------||------------------------------------||---------4-4-7-7--------------------||-4-4-2-2-4-4-7-7--------------------||-2-2-2-2-2-2-5-5--------------------||-2-2-0-0----------------------------|
|------------------------------------||------------------------------------||---------4-4------------------------||-4-4-2-2-4-4-5-5--------------------||-2-2-2-2-2-2-5-5--------------------||-2-2-0-0-----3-3--------------------|
Bridge
|------------------------------------||------------------------------------||------------------------------------||-2-2-2-2----------------------------|(4x)
Tap to rate this tab
 
# A B C D E F G H I J K L M N O P Q R S T U V W X Y Z