Severed Savior - Public Mutilation tab

Band:  Severed Savior
Album: Brutality Is Law
Song:  Public Mutilation


.  - palm mute           /  - slide up to
\  - slide down to       ~  - vibrato
h  - hammer on           b  - Bend
p  - pull off            Suffixes for bend
t  - tap                 f  - full bend    h - half bend
ph - pinched harmonic    q  - quarter bend t - tap bend
*  - see comment         ^  - Hold bend    r release bend
x  - Stuccatto           ~  - vibrato bend
,  - slight palm mute    () - ghost note, sustained note
"  - tremolo note        <> - Trill
nh - natural harmonic    .  - (above note) staccato

Notes : Severed Savior utilize varying dgrees of palm muting in this
        song so be careful to read any notes or instructions above
        each riff.  Also, the solo will not be absolutely perfect as
        it's played at a fair old pace but it should be close enough
        for most.

Tuning: Tune down 3 steps to C# F# B E G# C#


Riff A: All notes are lightly palm muted unless notated otherwise


|-----------------|---------------------------|-----------------||-----------------|---------------------------|-----------------||---------"-"-----|---------------------------|---------"-"-----||-"-"-"-"-7-7-"-"-|-"-"------"-"-"-"----------|-"-"-"-"-5-5-"-"-||-5-8-7-5-----5-8-|-7-5------5-7-8-5----------|-3-6-5-3-----3-6-||-----------------|-----0310---------03104310-|-----------------| .... ........
|---------------------------||---------------------------||---------------------------||-"-"------"-"-"-"----------||-5-3------3-6-5-3----------||-----0310---------03104310-| .... ........
Riff B1:
|-------------------|----------------------||-------------------|----------------------||-------------------|------5p2-------------||----------5---3----|-5---3-------.---.----||-3---2-------------|-------------3---2----||-1---0------0---00-|---0------00-1---0----| . . . .. . .. . .
Riff B2:
|-----------------------||-----------------------||----------------5p2----||-5---3----5---3--------||-----------------------||---0---00---0-------00-| . .. . ..
Riff B3:
|-----------------------|-----------------------||-----------------------|-----------------------||----------------5p2----|-----------------------||-5---3----5---3------.-|-----------.-----------||--------------------22-|----------22-----------||---0---00---0-------00-|----------00-----------| . .. . .. ..
Riff C: All notes are lightly palm muted unless notated otherwise
|-------------------|-------------------|-----------------||-------------------|-------------------|-----------------||-------------------|-------------------|-----------------||------"--"-"-"-----|-"-"------"--"-"-"-|-----------------||-"-"-11-10-8-7-"-"-|-6-5-"-"-11-10-8-7-|-0-1-3-1-3-4-3-1-||-5-5-----------3-3-|-----5-5-----------|-0-1-3-1-3-4-3-1-| . . . . . . . .
Riff D1: ________________ __________________ 1,3| 2,4||-----------------|-----------------|-------------------||-----------------|-----------------|-------------------||-----------------|-----------------|-------------------||-----------------|-------------6-5-|-11-10-----8-7-----||---------8-7-5-5-|-----6-5-3-3-----|-------8-8-----5-5-||-5-5-5-5---------|-3-3-------------|-------------------| . . . . . . . . . . . . . . . . . . . . . . . .
Riff D2:
|-----------------|-----------------|-----------------||-----------------|-----------------|-----------------||-----------------|-----------------|-7-6-------------||-----------------|-5-4-2-2-8-7-5-5-|-----------------||---------8-7-5-5-|-----------------|---------8-7-5-5-||-5-5-5-5---------|-----------------|-----5-5---------| . . . . . . . . . . . . . . . . . . . . . . . .
|-----------------||-----------------||---------7-6-----||-5-4-2-2-----8-7-||-----------------||-----------------| . . . . . . . .
Riff E:
|---------ph----------ph----------ph--||-------------------------------------||---------2bh---------2bh---------2bh-||-----5-----------5-----------5-------||-2-2---------2-2---------2-2---------||-0-0---0-----0-0---0-----0-0---0-----| . . . . . . . . .
__________________ __________________ 1| 2||-------------------|-------------------||-------------------|-------------------||-------------------|-------------------||-------------ph----|-------------------||-6-5-3-5-6-3-------|-"-"-"-"-"-"-------||-4-3-1-3-4-1-3bh~~-|-4-3-1-3-4-3-1~~~~-| . . . . . . . . . . . . .
Riff B4:
|------------------------------||------------------------------||----------------5p2-----------||-5---3----5---3-----.----.----||--------------------3----2----||---0---00---0-------1----0----| . .. . . .
Riff F1:
|Gtr1|-----------------|-----------------|-----------------||-----------------|-----------------|-----------------||---------6-5-----|---------6-5-----|---------6-5---.-||-0-3-2-0-----0-3-|-2-0-6-5-----0-3-|-2-0-6-5-----3-2-||-----------------|-----------------|-----------------||-----------------|-----------------|-----------------|
| . . . . . . . . | . . . . . . . . | . . . . . . . . ||Gtr2 | | ||-----------------|-----------------|-----------------||-----------------|-----------------|-----------------||-----------------|-----------------|-----------------||---.-------------|---.-------------|---.-------------||-2-2-------------|-2-2-------------|-2-2-------------||-0-0-------------|-0-0-------------|-0-0-------------| . . . . . .
Riff F2: ________________ _________________________ 1,2,3| 4||-----------------|-----------------|--------------------------||-----------------|-----------------|--------------------------||-------------3---|---6-5-----------|---6-5--------------------||-0-3-2-0-6-5---0-|-3-----0-6-5-3-2-|-3-----0-6-5-3-2----------||-----------------|-----------------|--------------------------||-----------------|-----------------|-----------------03104310-| . . . . . . . . . . . . . . . . . . . . . . . . ........
Riff F3:
|-----------------|-----------------||-----------------|-----------------||-------------3---|---6-5-----------||-0-3-2-0-6-5---0-|-3-----0-6-5-3-2-||-----------------|-----------------||-----------------|-----------------| . . . . . . . . . . . . . . . .
Rhy. Fill 1:
|----------||----------||----------||-----.----||-3---2----||-1---0----| . .
Solo 1: The bars here are more of a guide than anything, although they are probably not that dissimilar to the backing. However, I recommend that you listen to the CD for the correct timing and phrasing.
|-/1717171717171717-1415171514-||------------------------------||------------------------------||------------------------------||------------------------------||------------------------------|
|1214151412-12~-1214151412--------------12h15p12--------------------||-------------------------151312-12~--14--------14----------------14||-----------------------------------13------------13------------13--||---------------------------------------------------14--------14----||-----------------------------------------------------15p12h15------||-------------------------------------------------------------------|
|-12h15p12------------------------|-------1517191715----------||---------14--14--15~~~~~-14~~~~~-|-141517----------1917~~~~~-||---------------------------------|---------------------------||---------------------------------|---------------------------||---------------------------------|---------------------------||---------------------------------|---------------------------|
|-----18-----------------------------------||-/21----21-20-17\16-1617191716-1315161513-||------------------------------------------||------------------------------------------||------------------------------------------||------------------------------------------|
|--------------------------------------------------------||-13/15--13--12~~-1213151312-----------------------------||---------------------------14121112141211---------------||-----------------------------------------14131013141310-||--------------------------------------------------------||--------------------------------------------------------|
|---------------------------------------------------------||------------------------------------------------13-12~~~-||------------------------------------------111214---------||--------------------------10-14----13~~~~----------------||-14121012141210~~~~-101214-------------------------------||---------------------------------------------------------|
|------1215151515151412---------------------------------------------||121315----------------1513-1213-12~--------------------------------||-----------------------------------1112141211----------------------||---------------------------------------------14131013h14bh-10141310||-------------------------------------------------------------------||-------------------------------------------------------------------|
|------------------------------||------------------------------||-------------------ph---------||------------------------------||-14-12-14-12\11/12-12bh~~~~~~-||------------------------------|
Solo 2 Backing:
|------------------|------------------||------------------|------------------||---------"-"------|------------------||-"-"-"-"-7-7------|-"-"-"-"----------||-5-8-7-5----------|-5-7-8-5----------||-------------0310-|---------03104310-| .... ........
Solo: Ditto as for the first solo
|-------------------------|--------------------------||-------------------------|-------/15-14-15-18-15-14-||-/14~~~-1415181514-11-11/|/12~~~--------------------||-------------------------|--------------------------||-------------------------|--------------------------||-------------------------|--------------------------|
|-----------------------------------------||----14------------------------------"----||-15----15-14~~~-141517151414---171514----||-----------------------------------------||-----------------------------------------||-----------------------------------------|
|------------------------ph------|-------------------------||------"-------------------------|-141517-141517-1415~~~~~-||-171514----171514\12~~~-12bh~~~-|-------------------------||--------------------------------|-------------------------||--------------------------------|-------------------------||--------------------------------|-------------------------|
|-------1415171514----------1415171514------------||-141517----------1715141517----------17151415~~~-||-------------------------------------------------||-------------------------------------------------||-------------------------------------------------||-------------------------------------------------|
|----------------------------------------||-1214151412-----------------------------||-----------14121112141211---------------||-------------------------14131013141310-||----------------------------------------||----------------------------------------|
|-------------------------------------||---------------------10/15p14h15~~~~-||----------------10p9-----------------||-------------------------------------||-1412109~~~--------------------------||-------------------------------------|
Riff B5:
|-----------------------|-----------------------||-----------------------|-----------------------||----------------5p2----|-----------------------||-5---3----5---3-----..-|-----.-----------------||--------------------32-|-3---2-----------------||---0---00---0-------10-|-1---0-----------------| . .. . .. . .
Song Structure: Riff A (x2) Riff B1 Riff B2 (x3) Riff B3 Riff B2 (x4) Riff C (x2) Riff D1 Riff D2 (x2) Riff E Riff C (x2) Riff D1 Riff D2 (x2) Riff B2 (x3) Riff B4 Riff F1 Riff F2 Riff A Riff F3 (x4) Riff A (1st two bars only) Riff F3 (x4) _ Riff A (x2) | Solo 1 played over Rhy. Fill 1 _| this section Riff C (x2) _ Solo 2 Backing (x4) _| Solo 2 played over this riff Riff B1 Riff B2 (x3) Riff B5 I'm quite happy with how this turned out - especially considering how technical this song gets on numerous occasions. Despite this, I don't profess this tab to be perfect so any corrections are welcome. In addition, any suggestions or comments are welcome. Also, I encourage you to register a rating that reflects the quality of this tab. The only way I know that a tab needs improving or not is if people give it an accurate rating. Thanks in advance. END
Tap to rate this tab
 
# A B C D E F G H I J K L M N O P Q R S T U V W X Y Z