Shadows Fall - Eternity Is Within tab

Eternity Is Within
Shadows Fall
Tuning: D G C F A D

Intro Gtrs I, II|-----------------|-----------------|-----------------|-----------------||-----------------|-----------------|-----------------|-----------------||-----------------|-----------------|-----------------|-----------------||-----------------|-----------------|-----------------|-----------------||-4---5---7---5---|-3/5-3\2-----2/3-|-4---5---7---5---|-3/5-3\2-----2/3-||-2-0-3-0-5-0-3-0-|-1/3-1\0-0-0-0/1-|-2-0-3-0-5-0-3-0-|-1/3-1\0-0-0-0/1-| . . . . . . . . . . . .
Verse 1- Riff 1 Gtrs I, II|----------------||-----------------|----------------||----------------||o----------------|----------------||----------------||-----------------|----------------||----------------||-----------------|----------------||-----------2----||o-2--------5\3-2-|-2--------5\3-2-||-1-0-0-0-0-0----||--0--0-0-0-3\1-0-|-0--0-0-0-3\1-0-|
. . . . . . . . . . . Gtr I 4x|----------------|-------------------||----------------||----------------|------------------o||----------------||----------------|-------------------||----------------||----------------|-3/5-5\3-2/3~~~~---||----------------||-2--------5\3-2-|------------------o||-----------2----||-0--0-0-0-3\1-0-|-------------------||-1-0-0-0-0-0----|
| . . . . . . . .| Gtr II| 4x|----------------|-------------------||----------------||----------------|------------------o||----------------||----------------|-------------------||----------------||----------------|-------------------||----------------||-2--------5\3-2-|-5/7-7\5-4/5~~~~--o||-----------2----||-0--0-0-0-3\1-0-|-------------------||-1-0-0-0-0-0----| . . . . . . . .
Verse 1-Riff 2 Gtrs I, II||-----------------|-----------------------|||o----------------|-----------------------|||-----------------|-----------------------|||------3----------|-----------------------|||o-2---1---3/5-6--|-----------------------|||--0-0---0-1/3-4--|-0-0-0-0-0-0-0-0-0-0-0-| . . . . . . . . . . . . .
3x|----------------|---------------------|||----------------|--------------------o|||----------------|-----------------9---|||-----3----------|-----------------7---|||-2---1---3/5-6--|-----------------0--o|||-0-0---0-1/3-4--|-0-0-0-0-0-0-0-0-----|| . . . . . . . . . .
|----------------|-----------------------||----------------|-----------------------||----------------|-----------------------||-----3----------|-----------------------||-2---1---3/5-6--|-----------------------||-0-0---0-1/3-4--|-0-0-0-0-0-0-0-0-0-0-0-| . . . . . . . . . . . . .
|----------------|---------------------||----------------|---------------------||----------------|---------------------||-----3----------|---------------------||-2---1---3/5-6--|---------------------||-0-0---0-1/3-4--|-0-0-0---0-0-0-0-0-0-| . . . . . . . . . . .
Chorus Gtr I||-------------------|-------------------|-----------------|-------------------|||o------------------|-------------------|-----------------|-------------------|||-------------------|-------------------|-----------------|-------------------|||-------------------|-------------------|-----3---1---5---|--3----2---2h3-5---|||o-----8---6---10---|--8----7---7h8-10--|-----------------|-------------------|||--0-0---0---0----0-|-----0---0---------|-0-0---0---0---0-|-----0---0---------|| . . . . . . . . . . . . . .
|
| Gtr II||-------------------|-------------------|-----------------|-------------------|||o------------------|-------------------|-----------------|-------------------|||--2----------------|-(2)---------------|-3---------------|-(3)---------------|||--2----------------|-(2)---------------|-3---------------|-(3)---------------|||o-0----------------|-(0)---------------|-1---------------|-(1)---------------|||-------------------|-------------------|-----------------|-------------------|
|-------------------|-------------------||-------------------|-------------------||-------------------|-------------------||-------5---3-------|-------------------||-----------------5-|---3---3---3/5-(5)-||-0-0-0---0---0-0---|-0---0---0---------|
| . . . . . . . . .|-------------------|-------------------||-------------------|-------------------||-------------------|-------------------||-------5---3-------|-------------------||-----------------5-|---3---3---3/5-(5)-||-0-0-0---0---0-0---|-0---0---0---------| . . . . . . . . .
|-------------------|----------------------|||-------------------|---------------------o|||-------4---2-------|----------------------|||-----------------4-|---2---2---2/4-(4)----|||-------------------|---------------------o|||-0-0-0---0---0-0---|-0---0---0------------||
| . . . . . . . . .|-------------------|----------------------|||-------------------|---------------------o|||-------------------|----------------------|||-------5---3-------|----------------------|||-----------------5-|---3---3---3/5-(5)---o|||-0-0-0---0---0-0---|-0---0---0------------|| . . . . . . . . .
Guitar Solo 1 Gtr III|----------13-17-13----------------13-17-13-------||-------14----------14----------14----------14----||-13-15----------------15-13-15----------------15-||-------------------------------------------------||-------------------------------------------------||-------------------------------------------------|
|
| Gtrs I, II|-------------------------------------------------||-------------------------------------------------||-------------------------------------------------||-------------------------------------------------||--4-----------5-----------7-----------5----------||--2-----0-----3-----0-----5-----0-----3-----0----| . . . .
|-17-13----------------13-17b---------||-------14----------14----------------||----------15-13-15-------------------||-------------------------------------||-------------------------------------||-------------------------------------|
| |
|-------------------------------------||-------------------------------------||-------------------------------------||-------------------------------------||--3--/--5-----3--\--2------------2/3-||--1--/--3-----1--\--0-----0----0-0/1-| . .
F#5 G5 A5 G5|----------------15----15-17-15-------------------||-------15-17-18----17----------17-18-17-15-------||-15-17-------------------------------------18-17-||-------------------------------------------------||-------------------------------------------------||-------------------------------------------------|
|
|-------------------------------------------------||-------------------------------------------------||-------------------------------------------------||-------------------------------------------------||--4-----------5-----------7-----------5----------||--2-----0-----3-----0-----5-----0-----3-----0----| . . . .
|----------------15----15-17-15-----------------||-------15-17-18----17----------17-18-17-15-----||-15-17-------------------------------------18--||-----------------------------------------------||-----------------------------------------------||-----------------------------------------------|
| |
|-----------------------------------------------||-----------------------------------------------||-----------------------------------------------||-----------------------------------------------||--3---/---5-----3---\---2------------2---/---3-||--1---/---3-----1---\---0-----0----0-0---/---1-| . .
|-12br----12br----|-12br---12br---||------10------10-|------10----10-||-----------------|---------------||-----------------|---------------||-----------------|---------------||-----------------|---------------|
|
|-----------------|-----------------||-----------------|-----------------||-----------------|-----------------||-----------------|-----------------||-4---5---7---5---|-3/5-3\2-----2/3-||-2-0-3-0-5-0-3-0-|-1/3-1\0-0-0-0/1-| . . . . . .
|-----------------|-22b-------------||-(10)------------|-----------------||-----------------|-----------------||-----------------|-----------------||-----------------|-----------------||--------5\0/5----|-----------------|
|
|-----------------|-----------------||-----------------|-----------------||-----------------|-----------------||-----------------|-----------------||-4---5---7---5---|-3/5-3\2-----2/3-||-2-0-3-0-5-0-3-0-|-1/3-1\0-0-0-0/1-| . . . . . .
Verse 2 >|-(22)--------------|-(22)---------------------||-------------------|--------------------------||-------------------|--------------------------||-------------------|--------------------------||-------------------|--------------------------||-------------------|--------------------------|
|
| Gtrs I, II|-------------------|--------------------------||-------------------|--------------------------||-------------------|--------------------------||--------3----------|--------------------------||---2----1---3/5-6--|--------------------------||---0--0---0-1/3-4--|---0--0-0-0-0-0-0-0-0-0-0-| . . . . . . . . . . . . .
|-(22)--------------|-(22)--------------------||-------------------|-------------------------||-------------------|-------------------------||-------------------|-------------------------||-------------------|-------------------------||-------------------|-------------------------|
|
|-------------------|-------------------------||-------------------|-------------------------||-------------------|---------------------9---||--------3----------|---------------------7---||---2----1---3/5-6--|---------------------0---||---0--0---0-1/3-4--|---0---0-0-0-0-0-0-0-----| . . . . . . . . . .
Gtrs I, II||-----------------|-----------------------|||o----------------|-----------------------|||-----------------|-----------------------|||------3----------|-----------------------|||o-2---1---3/5-6--|-----------------------|||--0-0---0-1/3-4--|-0-0-0-0-0-0-0-0-0-0-0-| . . . . . . . . . . . . .
|----------------|---------------------|||----------------|--------------------o|||----------------|-----------------9---|||-----3----------|-----------------7---|||-2---1---3/5-6--|-----------------0--o|||-0-0---0-1/3-4--|-0-0-0-0-0-0-0-0-----|| . . . . . . . . . .
|----------------|-----------------------||----------------|-----------------------||----------------|-----------------------||-----3----------|-----------------------||-2---1---3/5-6--|-----------------------||-0-0---0-1/3-4--|-0-0-0-0-0-0-0-0-0-0-0-| . . . . . . . . . . . . .
|----------------|---------------------||----------------|---------------------||----------------|---------------------||-----3----------|---------------------||-2---1---3/5-6--|---------------------||-0-0---0-1/3-4--|-0-0-0---0-0-0-0-0-0-| . . . . . . . . . . .
Chorus Gtr I||-------------------|-------------------|-----------------|-------------------|||o------------------|-------------------|-----------------|-------------------|||-------------------|-------------------|-----------------|-------------------|||-------------------|-------------------|-----3---1---5---|--3----2---2h3-5---|||o-----8---6---10---|--8----7---7h8-10--|-----------------|-------------------|||--0-0---0---0----0-|-----0---0---------|-0-0---0---0---0-|-----0---0---------|| . . . . . . . . . . . . . .
|
| Gtr II||-------------------|-------------------|-----------------|-------------------|||o------------------|-------------------|-----------------|-------------------|||--2----------------|-(2)---------------|-3---------------|-(3)---------------|||--2----------------|-(2)---------------|-3---------------|-(3)---------------|||o-0----------------|-(0)---------------|-1---------------|-(1)---------------|||-------------------|-------------------|-----------------|-------------------|
|-------------------|-------------------||-------------------|-------------------||-------------------|-------------------||-------5---3-------|-------------------||-----------------5-|---3---3---3/5-(5)-||-0-0-0---0---0-0---|-0---0---0---------|
| . . . . . . . . .|-------------------|-------------------||-------------------|-------------------||-------------------|-------------------||-------5---3-------|-------------------||-----------------5-|---3---3---3/5-(5)-||-0-0-0---0---0-0---|-0---0---0---------| . . . . . . . . .
|-------------------|----------------------|||-------------------|---------------------o|||-------4---2-------|----------------------|||-----------------4-|---2---2---2/4-(4)----|||-------------------|---------------------o|||-0-0-0---0---0-0---|-0---0---0------------||
| . . . . . . . . .|-------------------|----------------------|||-------------------|---------------------o|||-------------------|----------------------|||-------5---3-------|----------------------|||-----------------5-|---3---3---3/5-(5)---o|||-0-0-0---0---0-0---|-0---0---0------------||
. . . . . . . . . Verse 3||-----------------|----------------|----------------|--------------------||||o----------------|----------------|----------------|-------------------o||||-----------------|----------------|----------------|--------------------||||-----------------|----------------|----------------|-3/5-5\3-2/3~~~~----||||o-2--------5\3-2-|-2--------5\3-2-|-2--------5\3-2-|-------------------o||||--0--0-0-0-3\1-0-|-0--0-0-0-3\1-0-|-0--0-0-0-3\1-0-|--------------------||
| . . . . . . . . .||-----------------|----------------|----------------|--------------------||||o----------------|----------------|----------------|-------------------o||||-----------------|----------------|----------------|--------------------||||-----------------|----------------|----------------|--------------------||||o-2--------5\3-2-|-2--------5\3-2-|-2--------5\3-2-|-5/7-7\5-4/5~~~~---o||||--0--0-0-0-3\1-0-|-0--0-0-0-3\1-0-|-0--0-0-0-3\1-0-|--------------------|| . . . . . . . . .
Breakdown Gtrs I, II|-------------------|-------------------|----------|--------||-------------------|-------------------|----------|--------||-------------------|-------------------|-5--------|-(5)----||-------------------|-------------------|-5--------|-(5)----||-------------------|-------------------|-3--------|-(3)----||-0-0-0-0-0-0-0-0-0-|-0-0-0-0-0-0-0-0-0-|----------|--------| . . . . . . . . . . . . . . . . . .
||--------------------------|---------------------------------|||o-------------------------|---------------------------------|||--------------------------|---------------------------------|||--------------------------|---------------------------------|||o-------------------------|-5-5-5-5-3-3-3-3-----------------|||--0-0-0-0-0-0-1-1-1-0-0-0-|-----------------5-5-5-5-3-3-3-3-| . . . . . . . . . . . .
3x|---------------------------------|----------------------------------|||---------------------------------|---------------------------------o|||---------------------------------|----------------------------------|||---------------------------------|----------------------------------|||-6-6-6-6-4-4-4-4-----------------|-----------------3-3-3-3-5-5-5-5-o|||-----------------4-4-4-4-6-6-6-6-|-3-3-3-3-5-5-5-5------------------||
|-------------------|-------------------|-------------------|------------||-------------------|-------------------|-------------------|------------||-------------------|-------------------|-------------------|------------||-------------------|-------------------|-5--3--------------|----4--3----||-------------3--2--|-5--3--------------|-3--1--------------|-5--2--1----||-0-0-0-0-0-0-1--0--|-3--1--0-0-0-0-0-0-|-------0-0-0-0-0-0-|-3----------| . . . . . . . . . . . . . . . . . .
Bridge(w/ Half-Time Feel)||-----------|-------------|----------|--------|||o----------|-------------|----------|--------|||-----------|-------------|----------|--------|||-----------|--------3----|----------|--------|||o-3--------|-(3)----1----|-2--------|-(2)----|||--1--------|-(1)---------|-0--------|-(0)----|
|----------|----------------|----------|---------|||----------|----------------|----------|--------o|||----------|----------------|----------|---------|||----------|-3-2---------3~~|----------|---------|||-3--------|-1-0-5-2-3-5-1~~|-2--------|-(2)----o|||-1--------|-----3-0-1-3----|-0--------|-(0)-----||
Double Time Gtr III|-22---------------|-(22)------(22)b------------------|-(22)---------------------------||------------------|----------------------------------|--------------------------------||------------------|----------------------------------|--------------------------------||------------------|----------------------------------|--------------------------------||------------------|----------------------------------|--------------------------------||------------------|----------------------------------|--------------------------------|
|
| Gtrs I, II|------------------|----------------------------------|--------------------------------||------------------|----------------------------------|--------------------------------||------------------|----------------------------------|--------------------------------||------------------|----------------------------------|--------------------------------||--4---5---7---5---|---3/5-3\2-----------------2/3----|---4---------5---------7----5---||--2-0-3-0-5-0-3-0-|---1/3-1\0---0--------0----0/1----|---2----0----3----0----5--0-3-0-| . . . . . . . . . .
|-(22)r---------------|-17-13----------------13-17------||---------------------|-------14----------14------------||---------------------|----------15-13-15---------------||---------------------|---------------------------------||---------------------|---------------------------------||---------------------|---------------------------------|
|
|---------------------|---------------------------------||---------------------|---------------------------------||---------------------|---------------------------------||---------------------|---------------------------------||---3/5-3\2-----2/3---|--------------------------2------||---1/3-1\0-0-0-0/1---|--1--0--0-----0-----0-----0------| . . . . . . .
Guitar Solo 2|------------------------|----12-15-13-----------||-12br-10-13b---------14-|-15--------------------||--------------12-14-----|-----------------14-15-||------------------------|-----------------------||------------------------|-----------------------||------------------------|-----------------------|
|
|------------------------|-----------------------||------------------------|-----------------------||------------------------|-----------------------||--------3---------------|-----------------------||--2-----1-----3/5--6----|-----------------------||--0--0-----0--1/3--4----|-0-0-0-0-0-0-0-0-0-0-0-| . . . . . . . . . . . . .
|-13p11-------------------------|----------------------------||-------13-14p12----------12----|-13-12----------------------||----------------14-15-13----13-|---------13-15---------14---||-------------------------------|--------------------12------||-------------------------------|----------------------------||-------------------------------|----------------------------|
|
|-------------------------------|----------------------------||-------------------------------|----------------------------||-------------------------------|-------------------------9--||-----------3-------------------|-------------------------7--||--2--------1--------3/5--6-----|-------------------------0--||--0-----0--------0--1/3--4-----|--0--0-0--0--0---0--0-0-----| . . . . . . . . . .
|-------------------------15-|-17p15---------17-15------17~~~~~-----||-14p12-------14----15-16----|-------17---15-------17---------------||-------14-16----16----------|--------------------------------------||----------------------------|--------------------------------------||----------------------------|--------------------------------------||----------------------------|--------------------------------------|
|
|----------------------------|--------------------------------------||----------------------------|--------------------------------------||----------------------------|--------------------------------------||------------3---------------|--------------------------------------||---2--------1-----3/5--6----|--------------------------------------||---0-----0-----0--1/3--4----|--0-----0-0--0--0-----0-0--0---0--0-0-| . . . . . . . . . . . . .
|-------17-15-------17-15-------17----|--17-19-17----17-19-17----17~~~-||----15-------15-17-------15-17----17-|-----------19----------19-------||-14----------------------------------|--------------------------------||-------------------------------------|--------------------------------||-------------------------------------|--------------------------------||-------------------------------------|--------------------------------|
|
|-------------------------------------|-----------------------------------||-------------------------------------|-----------------------------------||-------------------------------------|------------------------------9----||--------3----------------------------|------------------------------7----||--2-----1-----------3--/--5-----6----|------------------------------0----||--0--0--------0-----1--/--3-----4----|---0---0-0--0-----0--0--0--0-------| . . . . . . . . . .
|------------------------|-----------------------||-18b~~~~~~-----------18-|-18b~~~~~~-------------||------------------------|-----------------------||------------------------|-----------------------||------------------------|-----------------------||------------------------|-----------------------|
|
|------------------------|-----------------------||------------------------|-----------------------||------------------------|-----------------------||-----------5------------|-----------------------||--4--------3---5/7-8----|-----------------------||--2------0---0-3/5-6----|-4-4-4-4-4-4-4-4-4-4-4-| . . . . . . . . . . . . .
|------------------------|-----------------------||---------------16-------|-----------------------||-17-19br-17-19----19----|-----------------------||---------------------17-|-(17)~~~~~~------------||------------------------|-----------------------||------------------------|-----------------------|
|
|------------------------|-----------------------||------------------------|-----------------------||------------------------|-----------------------||---------5--------------|-----------------------||--4------3-----5/7--8---|-----------------------||--2--0------0--3/5--6---|-4-4-4-4-4-4-4-4-4-4-4-| . . . . . . . . . . . . .
E5 Bb5 F5 G5 G#5|------------------------------------------------||------------------------------------------------||------------------------------------------------||------------------------------------------------||------------------14-15-17-15-14----------------||-9-10-12-14-15-17----------------17-15-14-15-17-|
|
|------------------------------------------------||------------------------------------------------||------------------------------------------------||-------------3----------------------------------||-2-----------1-----------3--/--5-----6----------||-0-----0-----------0-----1--/--3-----4----------| . .
|-------------------------------------------------||-------------------------------------------------||-------------------------------------------------||----------14-15-17-15-14----------------14-15-17-||-14-15-17----------------17-15-14-15-17----------||-------------------------------------------------|
|
|-------------------------------------------------||-------------------------------------------------||-------------------------------------------------||-------------------------------------------------||-------------------------------------------------||--0-----0--0--0-----0-----0--0--0-----0--0--0----| . . . . . . . . . . .
|-----------------------------------------|------15-18b~~~~~~~~--------||-----------------------------------------|-16------18b~~~~~~~~--------||-13-14-16-14-13----------------13-14-16~~|----------------------------||----------------17-15-14-15-17-----------|----------------------------||-----------------------------------------|----------------------------||-----------------------------------------|----------------------------|
|
|-----------------------------------------|----------------------------||-----------------------------------------|----------------------------||-----------------------------------------|----------------------------||--------------3--------------------------|----------------------------||--2-----------1-----------3--/--5-----6--|----------------------------||--0-----0-----------0-----1--/--3-----4--|--0-0--0--------0-0-0-0-0-0-| . . . . . . . . . . .
Outro Chorus Gtr III > ~~~~~~~~~~~~~~~~~~~~~~~~~|-(18)----------------|-(18)---------------||-(18)----------------|-(18)---------------||---------------------|--------------------||---------------------|--------------------||---------------------|--------------------||---------------------|--------------------|
| | Gtr I |
|---------------------|--------------------||---------------------|--------------------||---------------------|--------------------||---------------------|--------------------||--------8---6---10---|---8----7---7h8-10--||---0--0---0---0----0-|------0---0---------|
| . . . . . . .| Gtr II|---------------------|--------------------||---------------------|--------------------||---2-----------------|--(2)---------------||---2-----------------|--(2)---------------||---0-----------------|--(0)---------------||---------------------|--------------------|
|-----------------|------------------||-----------------|------------------||-----------------|------------------||-----3---1---5---|--3----2---2h3-5--||-----------------|------------------||-0-0---0---0---0-|-----0---0--------|
| . . . . . . .|-----------------|------------------||-----------------|------------------||-3---------------|-(3)--------------||-3---------------|-(3)--------------||-1---------------|-(1)--------------||-----------------|------------------|
Gtr I|-------------------|-------------------||-------------------|-------------------||-------------------|-------------------||-------5---3-------|-------------------||-----------------5-|---3---3---3/5-(5)-||-0-0-0---0---0-0---|-0---0---0---------|
| . . . . . . . . .| Gtr II|-------------------|-------------------||-------------------|-------------------||-------------------|-------------------||-------5---3-------|-------------------||-----------------5-|---3---3---3/5-(5)-||-0-0-0---0---0-0---|-0---0---0---------| . . . . . . . . .
|-------------------|---------------------||-------------------|---------------------||-------4---2-------|---------------------||-----------------4-|---2---2---2/4-(4)---||-------------------|---------------------||-0-0-0---0---0-0---|-0---0---0-----------|
| . . . . . . . . .|-------------------|---------------------||-------------------|---------------------||-------------------|---------------------||-------5---3-------|---------------------||-----------------5-|---3---3---3/5-(5)---||-0-0-0---0---0-0---|-0---0---0-----------| . . . . . . . . .
|------------------|-------------------|-----------------|------------------||------------------|-------------------|-----------------|------------------||------------------|-------------------|-----------------|------------------||------------------|-------------------|-----3---1---5---|--3----2---2h3-5--||-----8---6---10---|--8----7---7h8-10--|-----------------|------------------||-0-0---0---0----0-|-----0---0---------|-0-0---0---0---0-|-----0---0--------|
| . . . . . . . . . . . . . .|------------------|-------------------|-----------------|------------------||------------------|-------------------|-----------------|------------------||-2----------------|-(2)---------------|-3---------------|-(3)--------------||-2----------------|-(2)---------------|-3---------------|-(3)--------------||-0----------------|-(0)---------------|-1---------------|-(1)--------------||------------------|-------------------|-----------------|------------------|
Gtr I|-------------------|-------------------||-------------------|-------------------||-------------------|-------------------||-------5---3-------|-------------------||-----------------5-|---3---3---3/5-(5)-||-0-0-0---0---0-0---|-0---0---0---------|
|
| Gtr II|-------------------|-------------------||-------------------|-------------------||-------------------|-------------------||-------5---3-------|-------------------||-----------------5-|---3---3---3/5-(5)-||-0-0-0---0---0-0---|-0---0---0---------| . . . . . . . . .
|-------------------|---------------------||-------------------|---------------------||-------4---2-------|---------------------||-----------------4-|---2---2---2/4-(4)---||-------------------|---------------------||-0-0-0---0---0-0---|-0---0---0-----------|
| . . . . . . . . .|-------------------|---------------------||-------------------|---------------------||-------------------|---------------------||-------5---3-------|---------------------||-----------------5-|---3---3---3/5-(5)---||-0-0-0---0---0-0---|-0---0---0-----------| . . . . . . . . .
|-------------------|-------------------||-------------------|-------------------||-------------------|-------------------||-------5---3-------|-------------------||-----------------5-|---3---3---3/5-(5)-||-0-0-0---0---0-0---|-0---0---0---------|
| . . . . . . . . .|-------------------|-------------------||-------------------|-------------------||-------------------|-------------------||-------5---3-------|-------------------||-----------------5-|---3---3---3/5-(5)-||-0-0-0---0---0-0---|-0---0---0---------| . . . . . . . . .
|-------------------|-------------------|----------------*||-------------------|-------------------|----------------*||-------4---2-------|-------------------|----------------*||-----------------4-|---2---2---2/4-(4)-|----------------*||-------------------|-------------------|-----------2----*||-0-0-0---0---0-0---|-0---0---0---------|-1-0-0-0-0-0----*|
| . . . . . . . . . . . . . . |-------------------|-------------------|----------------*||-------------------|-------------------|----------------*||-------------------|-------------------|----------------*||-------5---3-------|-------------------|----------------*||-----------------5-|---3---3---3/5-(5)-|-----------2----*||-0-0-0---0---0-0---|-0---0---0---------|-1-0-0-0-0-0----*| . . . . . . . . . . . . . .
/-Slide Up \-Slide Down p-Pull-Off h-Hammer-On b-Bend br-Bend and Release (x)-tied note ~-vibrato .-Palm Mute
Tap to rate this tab
 
# A B C D E F G H I J K L M N O P Q R S T U V W X Y Z