Shadows Fall - A Fire In Babylon tab

----------------------------------------------------------------------------
                            Shadows Fall
                         A Fire In Babylon         Drop C     CGCFAD
----------------------------------------------------------------------------



|-------------------|-------------------|-------------|--------------||-------------------|-------------------|-------------|--------------||---9----------7----|---9----------7----|---7---------|----7---------||-7---9-10---9---10-|-7---9-10---9---10-|-----7-7-9-7-|------7-7-9-7-||-------------------|-------------------|-8-----------|-10-----------||-------------------|-------------------|-------------|--------------|
|-------------------|-------------------|-------------|--------------||-------------------|-------------------|-------------|--------------||---9----------7----|---9----------7----|---7---------|----7---------||-7---9-10---9---10-|-7---9-10---9---10-|-----7-7-9-7-|------7-7-9-7-||-------------------|-------------------|-8-----------|-10-----------||-------------------|-------------------|-------------|--------------|
|-------------------|-------------------|-----------------|------------||-------------------|-------------------|-----------------|------------||---9----------7----|---9----------7----|---7-------------|--7---------||-7---9-10---9---10-|-7---9-10---9---10-|-----7-7-9-7-----|----7-7-9-7-||-------------------|-------------------|-8------------10-|------------||-------------------|-------------------|-----------------|------------| X2
|-------------------|-------------------|-----------------||-------------------|-------------------|-----------------||-------------------|-/9--------------7-|-5-------------4-||-7---------------9-|-------------------|-----------------||-------------------|-/7--------------5-|-3-------------2-||-5---------------7-|-------------------|-----------------|
|-------------------||-------------------||-3-----------------||-------------------||-5-----------------||-------------------|
|-----------------|---------------------|------------------||-----------------|---------------------|------------------||-----------------|---------------------|------------------||-----7-x-7-------|---------------------|------------------||-----------8-----|-10-x-10-7-----------|-----8-x-8--------||-0-x---------0-0-|-----------8-x-x-0-0-|-0-x-------10-0-0-|
|---------------------||---------------------||---------------------||-10-x-10-7-------7-x-||-----------8-x-8-----|
|-----------------|-----------------------|------------------||-----------------|-----------------------|------------------||-----------------|-----------------------|------------------||---------7-------|-----------------------|------------------||-----0-x---8-----|-10-x-10-8-7-8---------|-----8-x-8--------||-0-x---------0-0-|---------------0-0-0-0-|-0-x-------10-0-0-|
|---------------------||---------------------||---------------------||-10-x-10-7-------7-x-||-----------8-x-8-----|
|-----------------|---------------------|------------------||-----------------|---------------------|------------------||-----------------|---------------------|------------------||-----7-x-7-------|---------------------|------------------||-----------8-----|-10-x-10-7-----------|-----8-x-8--------||-0-0---------0-0-|-----------8-x-x-0-0-|-0-x-------10-0-0-|
|---------------------||---------------------||---------------------||-10-x-10-7-------7---||-----------8-x-8---0-| X4
|---------------------0-||---------------------0-||-2---4---5---7---------||-2---4---5---7---2-----||-0---2---3---5---2-----| X4|-----------------0-----|
|-----------------------------------------||-----------------------------------------|-------------------||-----------------------------------------| ||-----------------------------------------| ||-8-------7---10---8-------7-8-------7-10-| ||---0-0-0---0----0---0-0-0-----0-0-0------| |
|
|---------------------------------------------------------| ||---------------------------------------------------------| ||---------------------------------------------------------| ||---------------------------------------------------------| ||-7-5-------7-5-------8-5-----7-5-------7-5-------8-5-----| ||-----0-0-0-----0-0-0-----0-0-----0-0-0-----0-0-0-----0-0-| |
|
|-----------------------------------------| |-----X2|-----------------------------------------| ||-----------------------------------------| ||-----------------------------------------| ||-8-------7---10---8-------7-8-------7-10-| ||---0-0-0---0----0---0-0-0-----0-0-0------| |
|
|---------------------------------------------------------| ||---------------------------------------------------------| ||---------------------------------------------------------| ||---------------------------------------------------------| ||-7-5-------7-5-------8-5-----7-5-------8-5-------7-5-----| ||-----0-0-0-----0-0-0-----0-0-----0-0-0-----0-0-0-----0-0-|---|
|-------------|------------------------|------------------------||-------------|------------------------|----------------------0-||-------------|------------------------|---------------------0--||-7-7---5---7-|-3--3-2---3-2-0---3-2-3-|-3--3-2---3-2-0-2---0---||-7-7---5---7-|-3--------------3-------|-3-----------------2----||-5-5---3---5-|-1------3---------------|-1------3---------3-----|
|------------------------|------------------------------||------------------------|------------------------------||------------------------|------------------------------||-3--3-2---3-2-0---3-2-3-|-3----------5--2--------------||-3--------------3-------|-3----------5--2--------------||-1------3---------------|-1--1-1-1-1-3--0--0-0-0-0-0-0-|
|------------------------|------------------------||------------------------|----------------------0-||------------------------|---------------------0--||-3--3-2---3-2-0---3-2-3-|-3--3-2---3-2-0-2---0---||-3--------------3-------|-3-----------------2----||-1------3---------------|-1------3---------3-----|
|------------------------|-------------------------------------------||------------------------|-------------------------------------------||------------------------|-------------------------------------------||-3--3-2---3-2-0---3-2-3-|-3----------5--2-----------------3-------5-||-3--------------3-------|-3----------5--2-----------------3-------5-||-1------3---------------|-1--1-1-1-1-3--0--0-0-0-0-0-0--0-1-1-1-1-3-|
|--------------||--------------||----------9-7-||-9-10-9-7-----||--------------||--------------|
|-----------------|---------------------|------------------||-----------------|---------------------|------------------||-----------------|---------------------|------------------||-----7-x-7-------|---------------------|------------------||-----------8-----|-10-x-10-7-----------|-----8-x-8--------||-0-0---------0-0-|-----------8-x-x-0-0-|-0-x-------10-0-0-|
|---------------------||---------------------||---------------------||-10-x-10-7-------7---||-----------8-x-8---0-| X4
|---------------------0-||---------------------0-||-2---4---5---7---------||-2---4---5---7---2-----||-0---2---3---5---2-----| X4|-----------------0-----|
|-----------------------------------------||-----------------------------------------|-------------------||-----------------------------------------| ||-----------------------------------------| ||-8-------7---10---8-------7-8-------7-10-| ||---0-0-0---0----0---0-0-0-----0-0-0------| |
| |
|---------------------------------------------------------| ||---------------------------------------------------------| ||---------------------------------------------------------| ||---------------------------------------------------------| ||-7-5-------7-5-------8-5-----7-5-------7-5-------8-5-----| ||-----0-0-0-----0-0-0-----0-0-----0-0-0-----0-0-0-----0-0-| | |-----X2|-----------------------------------------| ||-----------------------------------------| ||-----------------------------------------| ||-----------------------------------------| ||-8-------7---10---8-------7-8-------7-10-| ||---0-0-0---0----0---0-0-0-----0-0-0------| |
|
|---------------------------------------------------------| ||---------------------------------------------------------| ||---------------------------------------------------------| ||---------------------------------------------------------| ||-7-5-------7-5-------8-5-----7-5-------8-5-------7-5-----| ||-----0-0-0-----0-0-0-----0-0-----0-0-0-----0-0-0-----0-0-|---|
|-------------|------------------------|------------------------||-------------|------------------------|----------------------0-||-------------|------------------------|---------------------0--||-7-7---5---7-|-3--3-2---3-2-0---3-2-3-|-3--3-2---3-2-0-2---0---||-7-7---5---7-|-3--------------3-------|-3-----------------2----||-5-5---3---5-|-1------3---------------|-1------3---------3-----|
|------------------------|------------------------------||------------------------|------------------------------||------------------------|------------------------------||-3--3-2---3-2-0---3-2-3-|-3----------5--2--------------||-3--------------3-------|-3----------5--2--------------||-1------3---------------|-1--1-1-1-1-3--0--0-0-0-0-0-0-|
|------------------------|------------------------||------------------------|----------------------0-||------------------------|---------------------0--||-3--3-2---3-2-0---3-2-3-|-3--3-2---3-2-0-2---0---||-3--------------3-------|-3-----------------2----||-1------3---------------|-1------3---------3-----|
|------------------------|-------------------------------------------||------------------------|-------------------------------------------||------------------------|-------------------------------------------||-3--3-2---3-2-0---3-2-3-|-3----------5--2-----------------3-------5-||-3--------------3-------|-3----------5--2-----------------3-------5-||-1------3---------------|-1--1-1-1-1-3--0--0-0-0-0-0-0--0-1-1-1-1-3-|
|--------------||--------------||----------9-7-||-9-10-9-7-----||--------------||--------------|
|------------------------------------||------------------------------------||------------------------------------||-2---/5-------5-7-5-4-------4-5-4-2-||-0----------------------------------||------------------------------------|
|---------------------------------------5-----||-----------------------------------------5---||-------------------------------------------5-||-2---/5-------5-7-5-4-------4-5--4-----------||-0-------------------------------------------| X2|---------------------------------------------|
|---------------||---------------||---------------||-7---7---7---7-||-7---7---7---7-||-5---5---5---5-|
|----------------------|---------------------|---------------6-|-5-5-6-5---||---5-6-8--6--5-6--5---|----------5--6-5-----|---5-6-8-6-5-6---|---------8-||-7------------------7-|-5---5-7-5-------7-5-|-7---------------|-----------||----------------------|---------------------|-----------------|-----------||----------------------|---------------------|-----------------|-----------||----------------------|---------------------|-----------------|-----------|
|------5-6-5---5-------------------5-6--5---10--8---8-10-8----||-6--8-------8---8-6--5------6---8--------8----------------11-||-------------------------------------------------------------||-------------------------------------------------------------||-------------------------------------------------------------||-------------------------------------------------------------|
|-----------------6--5-----|------------------------------||------5-6-------------6---|------3--5-3---------3--5-3---||----------7-------------7-|-------------5--------------2-||------------7---8---------|------------------------------||-5-5-5---------8----------|-3-3-3---------4-4-4----------||--------------6-----------|------------------------------|
|-----------------6--5---|--------0-1-0-----------0----||------5--6-----------6--|-----------------------3-3---||----------7-----------7-|-----------------------------||-----------7---8--------|-3-3-3-3------3-2-2-2-2----2-||-5-5-5--------8---------|-----------------------------| X2|-------------6----------|-----------------------------|
|-----------------------|-------------------|-------------------||-----------------------|-------------------|-------------------||-7--7----------7-------|-----------------5-|-5---------5-----6-||-7--7----------7-----8-|-8---------8-----5-|-5---------5-----7-||-5--5--5-5-5-5-5-5-5-8-|-8---------8-----3-|-3-3-3-3-3-3-3-3-4-||---------------------6-|-6-6-6-6-6-6-6-6---|-------------------|
|-----------------||-----------------||-6-------6-----7-||-7-------7-----7-||-4-4-4-4-4-4-4-5-||-----------------|
|-------------------|-------------------|-------------------||-------------------|-------------------|-------------------||-7---------7-------|-------------------|-----------------5-||-7---------7-----8-|-8---------8-----3-|-3---------3-----5-||-5-5-5-5-5-5-5-5-8-|-8---------8-----3-|-3---------3-----3-||-----------------6-|-6-6-6-6-6-6-6-6-1-|-1-1-1-1-1-1-1-1---|
|-----------------||-----------------||-5---------5--5--||-5---------5--5--||-3-3-3-3-3-3--3--||-----------------| X2
HAVNT FIGURED OUT GUITAR SOLO YET!!! SORRRY
|------------------------------------||------------------------------------||------------------------------------||-2---/5-------5-7-5-4-------4-5-4-2-||-0----------------------------------||------------------------------------|
|---------------------------------------5-----||-----------------------------------------5---||-------------------------------------------5-||-2---/5-------5-7-5-4-------4-5--4-----------||-0-------------------------------------------| X2|---------------------------------------------|
|--------------------------|---------------------------||---5----------------------|---------------------------||-----4-5--4-5-7--5-4-5--4-|---7---4---4-5--4---4--5/7-||-7------------------------|-5---7---7--------7--------||--------------------------|---------------------------||--------------------------|---------------------------|
|-----------------------------------------|--------------------------||--10-12-13--12-10-13-15-13-12-13---12-10-|--------------------------||-9---------------------------------------|-------7------7-9-7--7----||-----------------------------------------|-7-9-10--10-9------10--10-||-----------------------------------------|--------------------------||-----------------------------------------|--------------------------|
|--------------------------|----------------------------||---8----------6-----------|---6---3----3-5--3---3--5/6-||-5---7-9--7-9----9-7-9--7-|-4---5----5--------5--------||--------------------------|----------------------------||--------------------------|----------------------------||--------------------------|----------------------------|
|-------------------------------------------||----13-15-17--15-13-17-18-17-15-17---15-13-||-12----------------------------------------||-------------------------------------------||-------------------------------------------||-------------------------------------------|
|-------------------------------------------------------||-------6-----6-8-6---6---------------------------------||-5-7-9---9-7-------9----9---2--4--5--7-----------------||----------------------------2--4--5--7--3--5--10--9--7-||----------------------------0--2--3--5--3--5--10--9--7-||----------------------------------------1--3--8---7--5-|
Tap to rate this tab
 
# A B C D E F G H I J K L M N O P Q R S T U V W X Y Z