Shadows Fall - Art Of Balance tab

.  - palm mute           /  - slide up to
\  - slide down to       ~  - vibrato
h  - hammer on           b  - Bend
p  - pull off            Suffixes for bend
t  - tap                 f  - full bend    h - half bend
ph - pinched harmonic    q  - quarter bend t - tap bend
*  - see comment         ^  - Hold bend    r release bend
x  - Stuccatto           ~  - vibrato bend
,  - slight palm mute    () - ghost note, sustained note
"  - tremolo note        <> - Trill


Bare with me, this is my first written tab.


Standard D tuning-DGCAFD


RIFF 1|----------------------------------------------------||----------------------------------------------------||-------------------4--4-----5--4--------------------||--2----5-2-5-2-----4----4---5--4--5--7--------------||--2----5-2-5-2-----2~~~~~---3--2--5--7--------------||--0----3-0-3-0--------------------3--5--------------|
|-----------------3----------------------------------| x2|-------------------3--------------------------------||---------------5------------------------------------||---------------5---------5--------------------------||---------------3---------5--------------------------||-5--5--5--5--------------3--------------------------| . . . .
INTRO SOLO (w/ wah)|----------------------------------------------------||-7/9~~~------------12~~---11~~---12~~---------------||----------------------------------------------------||----------------------------------------------------||----------------------------------------------------||----------------------------------------------------|
|----------------------------------------------------||----------12~~---11~~--12--11~~~--------------------||----------------------------------------------------||----------------------------------------------------||----------------------------------------------------||----------------------------------------------------|
|---------------------------------------17-17f^r-----||----------12h14---14f^rp12------15------------------||-12h13h14-------------------------14----------------||----------------------------------------------------||----------------------------------------------------||----------------------------------------------------|
|-17-19-20f~~~----------------------------------------||----------------15f-15-12------12--------------------||---------------------------14f----14-12--------------||-----------------------------------------12-12/14~---||-----------------------------------------------------||-----------------------------------------------------|END INTRO SOLO
ACOUSTIC RIFF 1|-------------------------------------------------------------||-------------------------------------------------------------||-------0---------------0-----------0---------------0---------||-----4---4-----------4-----------4---4-----------4---4-----4-||---7-------7---7---7-----------7-------7---7---7-------7-5---||-0-----------0---0-----------0-----------0---0---------------|
|---------0--------------------------0-----------------||-------3---3-1---------1----------3---3-1---------1---||-----0---------0-----0----------0---------0-----0-----||---2---------------2----------2---------------2-------||-3---------------3----------3---------------3---------||------------------------------------------------------|
I CAN'T FIGURE OUT ACOUSTIC RIFF 2 (WHILE HE'S SINGING) IF ANYONE KNOWS IT, PLEASE EMAIL IT TO ME AT fr3ak211@gmail.com ACOUSTIC RIFF 2 RIFF 1 ACOUSTIC RIFF 2
RIFF 2 (GUITAR 1)|----------------------------------------------------||----------------------------------------------------||----------------------------------------------------||-2--5--4h5p4-----5--5--4h5p4----7---7-5-4-5-4-------||-2-----------5---5-----------5--7-------------5/7---||-0---------------3--------------5-------------------|
RIFF 2 (GUITAR 2 PLAYED 2ND & 4TH TIME)|----------------------------------------------------||----------------------------------------------------||----------------------------------------------7/9---||-2--9--7h9p7-----5--9--7h9p7----7---7-5-4-5-4-------||-2-----------9---5-----------9--7-------------------||-0---------------3--------------5-------------------|
RIFF 3|---------------------------------------------------||---------------------------------------------------||---------------------------------------------------||-2--4----4----4------------------------------------||-2----5----7----5------------7---------------------||-0---------------------0--5-----0--3---------------|
|----------------------------------------------------||----------------------------10*---------------------||----------------------------------------------------||-2--4----4----4--------7/10-------------------------||-2----5----7----5-----------------------------------||-0--------------------------------------------------| ph
ACOUSTIC SOLO|----------------------------------------------------||-----8--8h10-7--5--7--8--7--5--3--------------------||----------------------------------------------------||----------------------------------------------------||----------------------------------------------------||-0--------------------------------------------------|
|----------------------------------------------------||-3/5--8--5--8--10--7--------------------------------||----------------------7--9--7--9--9h11--------------||----------------------------------------------------||----------------------------------------------------||----------------------------------------------------|
|--------------------------------------------8-------||-8-10-12--8h10p8-----------8-10-12-8h10p8-----12----||------------------11-12-------------------9---------||----------------------------------------------------||----------------------------------------------------||----------------------------------------------------|
|----------------------------------------------------||-8-10-12--8h10p8----12--15--13--15--15/17-----------||-----------------11---------------------------------||----------------------------------------------------||----------------------------------------------------||----------------------------------------------------|
SOLO
|----------------------------------------------------||-------13----13h12-15/17~~~~~--13h15p13-12-13~~~~~--||----14----------------------------------------------||-14-------14----------------------------------------||----------------------------------------------------||----------------------------------------------------|
|----------------------------------------------------||-12h13p12--10--12~---10\8--10~~--8~~----------------||----------------------------------------------------||---------------------------------------14~~---------||----------------------------------------------------||----------------------------------------------------|
|----------------------------------------------------||----------------------------------------------------||----12----12\11---------------12----12\11-----------||-14----14-------12/14~~----14----14-------12-10~~---||----------------------------------------------------||----------------------------------------------------|
|----------------------------------------------------||----12----12/13~~-----10/12-------------------------||--------------------------------11/12~~-------------||-10----10---------9~~--------12---------------------||----------------------------------------------------||----------------------------------------------------|
|--12h15p12h15p12------12h14p12h14p12-----17-----12--||------------------12------------------12----13------||----------------------------------------------------||----------------------------------------------------||----------------------------------------------------||----------------------------------------------------|
|----17----12h15p12h15p12----12-17-------------------||-------13----------------13-------------------------||----------------------------------------------------||----------------------------------------------------||----------------------------------------------------||----------------------------------------------------|
|-----14-17----15-19----14-17----15-19----15-19------||--15-------15-------15-------15-------15------------||----------------------------------------------------||----------------------------------------------------||----------------------------------------------------||----------------------------------------------------|
Still bent|--22f^^^^^^^t^^t^^t^r---20~-----------||--------------------------------------||--------------------------------------||--------------------------------------||--------------------------------------||--------------------------------------|
Still bent|--19--20--20--20f^^^^^^^t~~~~~~~--------||----------------------------------------||----------------------------------------||----------------------------------------||----------------------------------------||----------------------------------------|
|--20--19~~------19----22-22f^^^^~~~~~----------------||-------------------20--------------------------------||-----------------------------------------------------||-----------------------------------------------------||-----------------------------------------------------||-----------------------------------------------------|
END SOLO
Tap to rate this tab
 
# A B C D E F G H I J K L M N O P Q R S T U V W X Y Z