Shadows - Apache tab

this is an easier and much more fun way this awesome song... its maby not 100% 
correct, but i hope you enjoy it:D




|----------------5--------||------------------8--5~~-||----5-7~~-----5----------||--7---------7------------|X2|-------------------------||-------------------------|
|--------------------||--------------------||--------------------||--7-7-7-4-----------|X2|-7---7---7-5-7~~----||--------------------|
|--------------------||--------------------||---7-7-7-4----------||--7---7---7-5-7~~---||--------------------||--------------------|
|--------------------||--------------------||--------------------||--7-7-7-4-----------||-7---7---7-7~~------||--------------------|
|--------------------------------||--------------------------------||--------------------------------||---333---3333---333---3333-2----|X2 exept not the 0-0 in the end...|-3-----3------3-----3--------0-0| |--------------------------------|
|-------------------------------||-------------7-----------------||---------7-9---9-7-------------||---7-9-7-----------9~~---------||-9-----------------------------||-------------------------------|
|-------------------------------||-------------------------------||---------7-9-------------------||---7-9-7-----7-----------------||-9-----------------------------||-------------------------------|
|-------------------------------||-------------7-----------------||---------7-9---9-7-------------||---7-9-7-----------9~~---------||-9-----------------------------||-------------------------------|
|--------------------------------||--------------------------------||--------------------------------||---333---3333---333---3333-2----||-3-----3------3-----3--------0-0| |--------------------------------|
|--------------------------------||--------------------------------||--------------------------------||---333---3333---333---3333-2----||-3-----3------3-----3-----------| |--------------------------------|
|--------------------------------------------------||--------------------------------------------------||--------------------------------------------------||-----7-7-7-7-----7-7--4-4-4-4--------7-7-7-7------|X2|-7-7---------7-7-------------7-7--5-5--------7-7--||--------------------------------------------------|
|--------------------------------------------------||--------------------------------------------------||-----7-7-7-7-----7-7--4-4-4-4---------7-7-7-7-----||-7-7---------7-7-------------7-7--5-5--------7-7--||--------------------------------------------------||--------------------------------------------------|
|--------------------------------------------------||--------------------------------------------------||--------------------------------------------------||-----7-7-7-7-----7-7--4-4-4-4--------7-7-7-7------||-7-7---------7-7-------------7-7--5-5--------7-7--||--------------------------------------------------|
|--------------------||--------------------||--------------------||--7-7-7-4-----------||-7---7---7-5-7~~----||--------------------|
|--------------------||--------------------||---7-7-7-4----------||--7---7---7-7~~-----||--------------------||--------------------|
|------------------------------------||------------------------------------||------------------------------------||------------------------------------||-----------------------------8-8-7--||-1-1-1-1--5-5-5-5--8-8-8-8-8--------|
|----------------5--------||------------------8--5~~-||----5-7~~-----5----------||--7---------7------------|X2 fading out...|-------------------------||-------------------------|
Tap to rate this tab
 
# A B C D E F G H I J K L M N O P Q R S T U V W X Y Z