Shadows - Fbi tab

Shadows - FBI                                       


Lead Guitar
                                                            
E||------------------|----12------12---12--12---12-----12--|B||------------------|-------------------------------------|G||------------------|-------------------------------------|D||------------------|-------------------------------------|A||------------------|-------------------------------------|E||------------------|-------------------------------------|
----------------------|-------------------------|------------------------|-------------------1--|--3---------------3----1-|--------------------1---|--------------2-------|---------------2---------|--2------------2--------|----------------------|-------------------------|------------------------|----------------------|-------------------------|------------------------|----------------------|-------------------------|------------------------|
-------------------------|-------------------------|--3-------0----------------|--3---------------3---1--|----------------------1--|------------3------1-----3-|---------------2---------|--2--------------2-------|---------------------------|-------------------------|-------------------------|---------------------------|-------------------------|-------------------------|---------------------------|-------------------------|-------------------------|---------------------------|
--0----0--------------------|------0------------0---------|----------3---1---------1---|--3-----3---1--3------3---1--|----------------2-----------|-----------------------------|----------------------------|-----------------------------|----------------------------|-----------------------------|----------------------------|-----------------------------|
------0------------0----------|-------------------------|--3------3---1--3----3--1-----|-------------------------|----------------------------2-|---------------------1---|------------------------------|-------------2--4--------|------------------------------|-------------------------|------------------------------|-------------------------|
-------------------------|----------------------|--------------------------|---------------------1-3-|---------------3---1--|----------------------1---|--2--------------2-------|-------------2--------|--2--------------2--------|-------------------------|----------------------|--------------------------|-------------------------|----------------------|--------------------------|-------------------------|----------------------|--------------------------|
-------------------------|-----------------------3-|----------------------|--3---------------3---1--|---------------------1---|---------5-3--------3-|---------------2---------|--2--------------2-------|----------------5-----|-------------------------|-------------------------|----------------------|-------------------------|-------------------------|----------------------|-------------------------|-------------------------|----------------------|
---------------------------|------0------------0--------|-----3-3----1-----------1--|--3------3---1-3-----3---1--|----------------2----------|----------------------------|---------------------------|----------------------------|---------------------------|----------------------------|---------------------------|----------------------------|
------0------------0----------|------------------------|--------------------|--3------3---1--3----3--1-----|------------------------|--------------------|----------------------------2-|--------------------1-2-|--------------------|------------------------------|-------------2--4-------|--------------------|------------------------------|------------------------|--------------------|------------------------------|------------------------|--------------------|
------------------|------------------|------------------|------------------|------------------|------------------|------------------|------------------|------------------|------------------|------------------|------------------|------------------|------------------|------------------|------------------|------------------|------------------|------------------|------------------|------------------|------------------|------------------|------------------|
------------------|------------------|------------------|------------------|------------------|------------------|------------------|------------------|------------------|------------------|------------------|------------------|------------------|------------------|------------------|------------------|------------------|------------------|------------------|------------------|------------------|------------------|------------------|------------------|
------------------|------------------|------------------|----------------------|------------------|------------------|------------------|----------------------|------------------|------------------|------------------|----------------------|------------------|------------------|------------------|--------------------2-|------------------|------------------|------------------|--------------0---3---|------------------|------------------|------------------|----------------------|
------------------------|-------------------------|-------------------------|------------------------|-------------------------|-------------------------|------------------------|-------------------------|-------------------------|-----------------0------|-------------------------|--2--------------0-------|--------------0--3---3--|--0--------------0---3---|---------------0------3--|------------------------|-------------------------|-------------------------|
-------------------------|-----------------------------|-------------------------|-----------------------------|-------------------------|--2----0---------------------|-------------------------|-----------2--0-----------0--|--0--------------0----3--|---------------------3-------|-------------------------|-----------------------------|
-----------------------------|------------------------------|-----------------------------|------------------------------|-----------------------------|------------------------------|--2----0---------------------|--0---2--0------0---2--0------|-----------3---0------0---3--|-------------3-------------3--|-----------------------------|------------------------------|
------------------------------|------------------------|------------------------------|------------------------|------------------------------|------------------------|--0---2--0-----0--2--0--------|------------------------|------------3-----------3---0-|------------------------|------------------------------|--------------0--2---4--|
-------------------12---|--12----12------10---8-------|------------------------|-----------------------------|------------------------|-----------------------------|------------------------|-----------------------------|--0---------------------|-----------------------------|------------------------|-----------------------------|
--10----10---------8-10---8-------|--10----10---------8-10----8-----|---------------10-----------------|---------------10----------------|----------------------------------|---------------------------------|----------------------------------|---------------------------------|----------------------------------|---------------------------------|----------------------------------|---------------------------------|
--10----10---10---10--10---10--10-----10--|--10-----10----8-----------|------------------------------------------|-----------------10--------|------------------------------------------|---------------------------|------------------------------------------|---------------------------|------------------------------------------|---------------------------|------------------------------------------|---------------------------|
----------8--5-----5------10----12---|--12-------12---12----12---12---12---|--8-10---------8---------------------|-------------------------------------|-------------------------------------|-------------------------------------|-------------------------------------|-------------------------------------|-------------------------------------|-------------------------------------|-------------------------------------|-------------------------------------|
--12----12---12----12---12----12---12----12---|----------------------------------------------|----------------------------------------------|----------------------------------------------|----------------------------------------------|----------------------------------------------|
--12----12--10---8----------------|-----------------------|------------------|-------------------10--------10---|--10-----8-------------|------------------|----------------------------------|-----------------------|------------------|----------------------------------|-----------------------|------------------|----------------------------------|-----------------------|------------------|----------------------------------|-----------------------|------------------|
------------------|------------------|------------------|------------------|------------------|------------------|------------------|------------------|------------------|------------------|------------------|------------------|------------------|------------------|------------------|------------------|------------------|------------------|------------------|------------------|------------------|------------------|------------------|------------------|
------------------|------------------|------------------|------------------|------------------|------------------|------------------|------------------|------------------|------------------|------------------|------------------|------------------|------------------|------------------|------------------|------------------|------------------|------------------|------------------|------------------|------------------|------------------|------------------|
------------------|------------------|----------------------|------------------|------------------|----------------------|------------------|------------------|----------------------|------------------|------------------|----------------------|------------------|------------------|-------------------3--|------------------|------------------|--------------5-------|
-------------------------|-------------------------|-------------------------|-------------------------|-------------------------|-------------------------|-------------------------|-------------------------|-------------------------|--2---------------0------|-------------------------|--2---------------0------|---------------0------3--|--0--------------0---3---|---------------0------3--|-------------------------|-------------------------|-------------------------|
------------------------|-----------------------------|------------------------|-----------------------------|------------------------|--2----0---------------------|------------------------|------------2--0----------0--|--0-------------0----3--|----------------------3------|------------------------|-----------------------------|
------------------------------|------------------------------|------------------------------|------------------------------|------------------------------|------------------------------|--2----2--0-------------------|--0----2-0------0---2--0------|--------------3---0--------3--|-------------3-------------3--|------------------------------|------------------------------|
------------------------------|------------------------|----------------------|------------------------------|------------------------|----------------------|------------------------------|------------------------|----------------------|--0---2--0------0--2-0--------|------------------------|----------------------|-------------3----------3---0-|------------------------|--0-------------------|------------------------------|-------------0--2---4---|-----------------0----|
---------------------|----------------------|-----------------------|---------------------|----------------------|-----------------------|---------------------|----------------------|-----------------------|-----------2---------|-----------2----------|------------2----------|--0------------------|--0-------------------|-----0-----------------|---------------------|----------------------|-----------------------|
--------------------|-------------------|------------------||--------------------|-------------------|------------------||--------------------|-------------------|------------------||-------------2------|-------------------|------------------||--0-----------------|-------------------|------------------||--------------------|-------------------|------------------||==
Tap to rate this tab
 
# A B C D E F G H I J K L M N O P Q R S T U V W X Y Z