She And Him - Volume One tab

Here is most of the album volume one by she & him the rest of the album will be up 
in a couple of weeks

==========Sentimental Heart==========

Verse|-1-1-1-1-3-3-3-3-0-0-0-0-0-0-0-0-||-1-1-1-1-0-0-0-0-1-1-1-1-1-1-1-1-||-2-2-2-2-0-0-0-0-2-2-2-2-2-2-2-2-||-3-3-3-3-0-0-0-0-2-2-2-2-2-2-2-2-||-3-3-3-3-2-2-2-2-0-0-0-0-0-0-0-0-||-1-1-1-1-3-3-3-3-----------------|
|-1-1-1-1-3-3-3-3-0-0-0-0-0-0-0-0-||-1-1-1-1-0-0-0-0-1-1-1-1-1-1-1-1-||-2-2-2-2-0-0-0-0-2-2-2-2-2-2-2-2-||-3-3-3-3-0-0-0-0-2-2-2-2-2-2-2-2-||-3-3-3-3-2-2-2-2-0-0-0-0-0-0-0-0-||-1-1-1-1-3-3-3-3-----------------|
|-1-1-1-1-3-3-3-3-1-1-1-1-3-3-3-3-||-1-1-1-1-0-0-0-0-1-1-1-1-0-0-0-0-||-2-2-2-2-0-0-0-0-2-2-2-2-0-0-0-0-||-3-3-3-3-0-0-0-0-3-3-3-3-0-0-0-0-||-3-3-3-3-2-2-2-2-3-3-3-3-2-2-2-2-||-1-1-1-1-3-3-3-3-1-1-1-1-3-3-3-3-|
|-1-1-1-1-3-3-3-3-1-1-1-1-3-3-3-3-||-1-1-1-1-0-0-0-0-1-1-1-1-0-0-0-0-||-2-2-2-2-0-0-0-0-2-2-2-2-0-0-0-0-||-3-3-3-3-0-0-0-0-3-3-3-3-0-0-0-0-||-3-3-3-3-2-2-2-2-3-3-3-3-2-2-2-2-||-1-1-1-1-3-3-3-3-1-1-1-1-3-3-3-3-|
Chorus|-1-1-1-1-0-0-0-0-3-3-3-3-0-0-0-0-||-1-1-1-1-1-1-1-1-0-0-0-0-1-1-1-1-||-2-2-2-2-0-0-0-0-0-0-0-0-0-0-0-0-||-3-3-3-3-2-2-2-2-0-0-0-0-2-2-2-2-||-3-3-3-3-3-3-3-3-2-2-2-2-3-3-3-3-||-1-1-1-1---------3-3-3-3---------|
==========Why Do You Let Me Stay Here==========
Intro|-0-0-0-0-0-0-0-0-0-0-0-0-0-0-0-0-||-1-1-1-1-1-1-1-1-1-1-1-1-4-4-3-3-||-0-0-0-0-0-0-0-0-2-2-2-2-0-0-0-0-||-2-2-2-2-2-2-2-2-2-2-2-2-5-5-4-4-||-3-3-3-3-1-1-1-1-0-0-0-0-6-6-5-5-||---------------------------------|
|-0-0-0-0-0-0-0-0-0-0-0-0-0-0-0-0-||-1-1-1-1-1-1-1-1-1-1-1-1-4-4-3-3-||-0-0-0-0-0-0-0-0-2-2-2-2-0-0-0-0-||-2-2-2-2-2-2-2-2-2-2-2-2-5-5-4-4-||-3-3-3-3-1-1-1-1-0-0-0-0-6-6-5-5-||---------------------------------|
Verse|-0-0-0-0-0-0-0-0-0-0-0-0-0-0-0-0-||-1-1-1-1-1-1-1-1-1-1-1-1-4-4-3-3-||-0-0-0-0-0-0-0-0-2-2-2-2-0-0-0-0-||-2-2-2-2-2-2-2-2-2-2-2-2-5-5-4-4-||-3-3-3-3-1-1-1-1-0-0-0-0-6-6-5-5-||---------------------------------|
|-0-0-0-0-0-0-0-0-0-0-0-0-0-0-0-0-||-1-1-1-1-1-1-1-1-1-1-1-1-4-4-3-3-||-0-0-0-0-0-0-0-0-2-2-2-2-0-0-0-0-||-2-2-2-2-2-2-2-2-2-2-2-2-5-5-4-4-||-3-3-3-3-1-1-1-1-0-0-0-0-6-6-5-5-||---------------------------------|
|-0-0-0-0-0-0-0-0-1-1-1-1-0-0-0-0-||-1-1-1-1-1-1-1-1-1-1-1-1-4-4-4-4-||-0-0-0-0-0-0-0-0-2-2-2-2-0-0-0-0-||-2-2-2-2-2-2-2-2-3-3-3-3-5-5-5-5-||-3-3-3-3-1-1-1-1-3-3-3-3-6-6-6-6-||-----------------1-1-1-1---------|
|-0-0-0-0-0-0-0-0-||-3-3-3-3-3-3-3-3-||-0-0-0-0-0-0-0-0-||-4-4-4-4-4-4-4-4-||-5-5-5-5-5-5-5-5-||-----------------|
Solo (it's either the 9p7h9 or 7h9 then slide 9/12)|------------------------------------------------------------------||-8-9-8-9-8-------------------------------------------(9p7h9)------||----------9-----9------------9-9---9-9-----9----------------------||------------5/7---7-6----7h9-----8-----8-7---7-6-7h9--------------||----------------------7h9----------------------------------(9/12)-||------------------------------------------------------------------|
|----------------------------------------------------------------||----------------------13--13--13----------12b-12b-12b-12b12b12b-||-------------13-13-13-------------16-16-16----------------------||-15--15--15-----------------------------------------------------||----------------------------------------------------------------||----------------------------------------------------------------|
|--------------------------------------------------||-13b-13b-13b-13b13b13b-14b-14b-14b-14b14b14b-15b~-||--------------------------------------------------||--------------------------------------------------||--------------------------------------------------||--------------------------------------------------|
==========This Is Not a Test==========
Intro|-2--2--2-2-2-2--2-2-2-2-2-2-2--0--0--0-0-0-0--0-0-0-0-0-0-0-||-3--3--3-3-3-2--2-2-2-2-2-2-2--0--0--0-0-0-2--2-2-2-2-2-2-2-||-2--2--2-2-2-2--2-2-2-2-2-2-2--0--0--0-0-0-0--0-0-0-0-0-0-0-||-0--0--0-0-0-0--0-0-0-0-0-0-0--2--2--2-2-2-2--2-2-2-2-2-2-2-||-------------------------------2--2--2-2-2-0--0-0-0-0-0-0-0-||-------------------------------0--0--0-0-0------------------|
|-2--2--2-2-2-2--2-2-2-2-2-2-2--0--0--0-0-0-0--0-0-0-0-0-0-0-||-3--3--3-3-3-2--2-2-2-2-2-2-2--0--0--0-0-0-2--2-2-2-2-2-2-2-||-2--2--2-2-2-2--2-2-2-2-2-2-2--0--0--0-0-0-0--0-0-0-0-0-0-0-||-0--0--0-0-0-0--0-0-0-0-0-0-0--2--2--2-2-2-2--2-2-2-2-2-2-2-||-------------------------------2--2--2-2-2-0--0-0-0-0-0-0-0-||-------------------------------0--0--0-0-0------------------|
VerseFor those of you who tried but didn't make it|---2--2--2-2-2------2--2-2-2-2-2-2-2-0--0--0-0-0-0--0-0-0-0-0-0-0-||---3--3--3-3-3------2--2-2-2-2-2-2-2-0--0--0-0-0-2--2-2-2-2-2-2-2-||---2--2--2-2-2------2--2-2-2-2-2-2-2-0--0--0-0-0-0--0-0-0-0-0-0-0-||---0--0--0-0-0------0--0-0-0-0-0-0-0-2--2--2-2-2-2--2-2-2-2-2-2-2-||-------------------------------------2--2--2-2-2-0--0-0-0-0-0-0-0-||-------------------------------------0--0--0-0-0------------------|
Settle down it's never what you think|-2--2--2-2-2------2--2-2-2-2-2-2-2-0--0--0-0-0-0--0-0-0-0-0-0-0-||-3--3--3-3-3------2--2-2-2-2-2-2-2-0--0--0-0-0-2--2-2-2-2-2-2-2-||-2--2--2-2-2------2--2-2-2-2-2-2-2-0--0--0-0-0-0--0-0-0-0-0-0-0-||-0--0--0-0-0------0--0-0-0-0-0-0-0-2--2--2-2-2-2--2-2-2-2-2-2-2-||-----------------------------------2--2--2-2-2-0--0-0-0-0-0-0-0-||-----------------------------------0--0--0-0-0------------------|
the summit doesn't differ from the big dark valley and the|---2--2--2-2-2----2--2-2-2-2-2-2-2-1--1-1-1-0--0-0-0-0-0-0-0-||---3--3--3-3-3----2--2-2-2-2-2-2-2-2--2-2-2-4--4-4-4-4-4-4-4-||---2--2--2-2-2----2--2-2-2-2-2-2-2-1--1-1-1-0--0-0-0-0-0-0-0-||---0--0--0-0-0----0--0-0-0-0-0-0-0-0--0-0-0-5--5-5-5-5-5-5-5-||--------------------------------------------6--6-6-6-6-6-6-6-||-------------------------------------------------------------|
Valley doesn't differ from the kitchen sink|-0--0--0-0-0----0--0-0-0-0-0-0-0-0--0--0-0-0-0--0-0-0-0-0-0-0-||-0--0--0-0-0----0--0-0-0-0-0-0-0-2--2--2-2-2-2--2-2-2-2-2-2-2-||-0--0--0-0-0----0--0-0-0-0-0-0-0-0--0--0-0-0-2--2-2-2-2-2-2-2-||-2--2--2-2-2----2--2-2-2-2-2-2-2-2--2--2-2-2-2--2-2-2-2-2-2-2-||-2--2--2-2-2----2--2-2-2-2-2-2-2-0--0--0-0-0-0--0-0-0-0-0-0-0-||-0--0--0-0-0----0--0-0-0-0-0-0-0------------------------------|
this repeats in the same pattern throughout the verses
Chorusand this is not a test|-----------0--0--0-0-0-0--0-0-0-0-0-0-0-||-----------0--0--0-0-0-2--2-2-2-2-2-2-2-||-----------0--0--0-0-0-2--2-2-2-2-2-2-2-||-----------2--2--2-2-2-2--2-2-2-2-2-2-2-||-----------2--2--2-2-2-0--0-0-0-0-0-0-0-||-----------0--0--0-0-0------------------|
No this is not a test|----------0--0--0-0-0-0--0-0-0-0-0-0-0-||----------0--0--0-0-0-2--2-2-2-2-2-2-2-||----------0--0--0-0-0-2--2-2-2-2-2-2-2-||----------2--2--2-2-2-2--2-2-2-2-2-2-2-||----------2--2--2-2-2-0--0-0-0-0-0-0-0-||----------0--0--0-0-0------------------|
Taking numbers never made sense anyway|-0--0--0-0-0-0--0-0-0-0-0-0-0--2--2--2-2-2-1--1-1-1-1-1-1-1-2--2--2-2-2-2-||-0--0--0-0-0-2--2-2-2-2-2-2-2--3--3--3-3-3-2--2-2-2-2-2-2-2-2--2--2-2-2-2-||-0--0--0-0-0-2--2-2-2-2-2-2-2--2--2--2-2-2-1--1-1-1-1-1-1-1-2--2--2-2-2-2-||-2--2--2-2-2-2--2-2-2-2-2-2-2--0--0--0-0-0-0--0-0-0-0-0-0-0-0--0--0-0-0-0-||-2--2--2-2-2-0--0-0-0-0-0-0-0---------------------------------------------||-0--0--0-0-0--------------------------------------------------------------|
==========Change Is Hard========== I'm still working on solo A when i'm done with it i'll post it
Verse - I'm all out of luck...|-0-0-0-0-0-0-0-0-0-0-0-0-5-5-5-5-||-5-5-5-5-5-5-5-5-5-5-5-5-0-0-0-0-||-0-0-0-0-0-0-0-0-0-0-0-0-0-0-0-0-||-6-6-6-6-7-7-7-7-6-6-6-6-0-0-0-0-||-7-7-7-7-6-6-6-6-7-7-7-7-6-6-6-6-||-------------------------7-7-7-7-|
Chorus - I was never no, i was never...|-0-0-0-0-0-0-0-0-0-0-0-0-6-6-6-6-||-5-5-5-5-5-5-5-5-5-5-5-5-0-0-0-0-||-0-0-0-0-0-0-0-0-0-0-0-0-0-0-0-0-||-6-6-6-6-7-7-7-7-6-6-6-6-0-0-0-0-||-7-7-7-7-6-6-6-6-7-7-7-7-5-5-5-5-||-------------------------6-6-6-6-|
Solo B (this is played with a slide)|-----------------------------------------------------||-11/---5/-7/-4/-6/---3/-3~-----11/---5/-7/-5/-4/---8-||-----------------------------------------------------||-----------------------------------------------------||-----------------------------------------------------||-----------------------------------------------------|
==========I Thought I Saw Your Face Today==========
Verse|-0-0-0-0-2-2-2-2-3-3-3-3-0-0-0-0-||-1-1-1-1-3-3-3-3-0-0-0-0-0-0-0-0-||-2-2-2-2-2-2-2-2-0-0-0-0-0-0-0-0-||-2-2-2-2-0-0-0-0-0-0-0-0-2-2-2-2-||-0-0-0-0---------2-2-2-2-2-2-2-2-||-----------------3-3-3-3-0-0-0-0-|
In the cars…|-0-0-0-0-2-2-2-2-2-2-2-2-0-0-0-0-||-1-1-1-1-3-3-3-3-3-3-3-3-0-0-0-0-||-2-2-2-2-2-2-2-2-4-4-4-4-0-0-0-0-||-2-2-2-2-0-0-0-0-4-4-4-4-2-2-2-2-||-0-0-0-0---------2-2-2-2-2-2-2-2-||-----------------0-0-0-0-0-0-0-0-|
It just repeats these two parts over throughout the song ==========Take It Back==========
Intro|-2------0------||-5------0------||-2------0------||-2------2------||-4------2------||-2------0------|
VerseStrum these chords as needed (in this order)|-2------2------0------2------2------0------0------||-5------3------3------5------3------3------2------||-2------4------0------2------4------0------2------||-2------4------0------2------4------0------2------||-4------2------2------4------2------2------0------||-2------0-------------2------0--------------------|
ChorusStrum these chords as you see fit|-2------2------0------0------2------2------0------0------||-3------3------0------2------3------3------0------2------||-2------4------0------2------2------4------0------2------||-0------4------2------2------0------4------2------2------||--------2------2------0-------------2------2------0------||--------0------0--------------------0------0-------------|
|-2------0------2------2------0------0------2------2------0------0------||-2------0------2------3------0------2------3------3------0------2------||-2------0------2------4------0------2------2------4------0------2------||-4------2------4------4------2------2------0------4------2------2------||-4------2------4------2------2------0-------------2------2------0------||-2------0------2------0------0--------------------0------0-------------|
==========I Was Made For You========== Rhythm Guitar Plays This Throughout the song
|----------------------------------||----------------------------------||----------------------------------||----------------------------------||-4444444422222222--------11111111-||-----------------11111111---------|
==========You Really Got a Hold on Me==========
|----0-0----0-0----0-0----0-0----0-0----0-0----0-0----0-0-|-1--1-1-1--1-1-1--1-1-1--1-1----1-1----1-1----1-1----1-1-|----0-0----0-0----0-0----0-0-2--2-2-2--2-2-2--2-2-2--2-2-|----2-2----2-2----2-2----2-2----2-2----2-2----2-2----2-2-|----3-3----3-3----3-3----3-3----0-0----0-0----0-0----0-0-|---------------------------------------------------------
==========Black Hole==========
Verse G Gm D Bm|-3---------------3----------------2-2-2-2-2-2-2-2-2-2-2-2-2-2-2-2-||-0---------------3----------------3-3-3-3-3-3-3-3-3-3-3-3-3-3-3-3-||-0---------------3----------------2-2-2-2-2-2-2-2-4-4-4-4-4-4-4-4-||-0---------------5----------------0-0-0-0-0-0-0-0-4-4-4-4-4-4-4-4-||-2---------------5--------------------------------2-2-2-2-2-2-2-2-||-3---------------3--------------------------------0-0-0-0-0-0-0-0-|
It’s at the heart of me…|-3-3-3-3-3-3-3-3-3-3-3-3-3-3-3-3-3-3-3-3-3-3-3-3-3-3-3-3-3-3-3-3-||-0-0-0-0-0-0-0-0-0-0-0-0-0-0-0-0-3-3-3-3-3-3-3-3-3-3-3-3-3-3-3-3-||-0-0-0-0-0-0-0-0-0-0-0-0-0-0-0-0-3-3-3-3-3-3-3-3-3-3-3-3-3-3-3-3-||-0-0-0-0-0-0-0-0-0-0-0-0-0-0-0-0-5-5-5-5-5-5-5-5-5-5-5-5-5-5-5-5-||-2-2-2-2-2-2-2-2-2-2-2-2-2-2-2-2-5-5-5-5-5-5-5-5-5-5-5-5-5-5-5-5-||-3-3-3-3-3-3-3-3-3-3-3-3-3-3-3-3-3-3-3-3-3-3-3-3-3-3-3-3-3-3-3-3-|
Chorus Chords|-2----2----2----2----3----3----0----1----||-3----3----3----3----0----3----2----2----||-2----3----4----5----0----3----2----2----||-0----0----0----0----0----5----2----2----||---------------------2----5----0----0----||---------------------3----3--------------|
==========Got Me==========
Verse 1|-------3-|-------|-------4-|-------|-------5-|-------|-----5---|-----5-|---3-----|---3---|-0-------|-0-----
Chorus|-5---5-5-5---5-5-5---5-5-5---5-5-5---5-5-5---5-5-5---5-5-5---5-5-|-6---6-6-6---6-6-6---6-6-6---6-6-6---6-6-6---6-6-6---6-6-6---6-6-|-7---7-7-7---7-7-7---7-7-7---7-7-7---7-7-7---7-7-7---7-7-7---7-7-|-7---7-7-7---7-7-7---7-7-7---7-7-7---7-7-7---7-7-7---7-7-7---7-7-|-5---5-5-5---5-5-5---5-5-5---5-5-5---5-5-5---5-5-5---5-5-5---5-5-|-0---0-0-0---0-0-0---0-0-0---0-0-0---0-0-0---0-0-0---0-0-0---0-0-
Verse 2|-3---3-3-3---3-3-3---3-3-3---3-3-3---3-3-3---3-3-3---3-3-3---3-3-|-4---4-4-4---4-4-4---4-4-4---4-4-4---4-4-4---4-4-4---4-4-4---4-4-|-5---5-5-5---5-5-5---5-5-5---5-5-5---5-5-5---5-5-5---5-5-5---5-5-|-5---5-5-5---5-5-5---5-5-5---5-5-5---5-5-5---5-5-5---5-5-5---5-5-|-3---3-3-3---3-3-3---3-3-3---3-3-3---3-3-3---3-3-3---3-3-3---3-3-|-0---0-0-0---0-0-0---0-0-0---0-0-0---0-0-0---0-0-0---0-0-0---0-0-
Bridge|-5---5-5-5---5-5-5---5-5-5---5-5-5---5-5-5---5-5-5---5-5-5---5-5-|-5---5-5-5---5-5-5---5-5-5---5-5-5---5-5-5---5-5-5---5-5-5---5-5-|-6---6-6-6---6-6-6---6-6-6---6-6-6---6-6-6---6-6-6---6-6-6---6-6-|-7---7-7-7---7-7-7---7-7-7---7-7-7---7-7-7---7-7-7---7-7-7---7-7-|-7---7-7-7---7-7-7---7-7-7---7-7-7---7-7-7---7-7-7---7-7-7---7-7-|-5---5-5-5---5-5-5---5-5-5---5-5-5---5-5-5---5-5-5---5-5-5---5-5-
==========I Should’ve Known Better (Beatles Cover)==========
Intro|-0-0-0-0-1-1-1-1-0-0-0-0-1-1-1-1-||-1-1-1-1-0-0-0-0-1-1-1-1-0-0-0-0-||-0-0-0-0-0-0-0-0-0-0-0-0-0-0-0-0-||-2-2-2-2-0-0-0-0-2-2-2-2-0-0-0-0-||-3-3-3-3-2-2-2-2-3-3-3-3-2-2-2-2-||---------3-3-3-3---------3-3-3-3-|
|-0-0-0-0-1-1-1-1-0-0-0-0-1-1-1-1-||-1-1-1-1-0-0-0-0-1-1-1-1-0-0-0-0-||-0-0-0-0-0-0-0-0-0-0-0-0-0-0-0-0-||-2-2-2-2-0-0-0-0-2-2-2-2-0-0-0-0-||-3-3-3-3-2-2-2-2-3-3-3-3-2-2-2-2-||---------3-3-3-3---------3-3-3-3-|
Verse|-0-0-0-0-1-1-1-1-0-0-0-0-1-1-1-1-||-1-1-1-1-0-0-0-0-1-1-1-1-0-0-0-0-||-0-0-0-0-0-0-0-0-0-0-0-0-0-0-0-0-||-2-2-2-2-0-0-0-0-2-2-2-2-0-0-0-0-||-3-3-3-3-2-2-2-2-3-3-3-3-2-2-2-2-||---------3-3-3-3---------3-3-3-3-|
|-0-0-0-0-1-1-1-1-0-0-0-0-1-1-1-1-||-1-1-1-1-0-0-0-0-1-1-1-1-0-0-0-0-||-0-0-0-0-0-0-0-0-0-0-0-0-0-0-0-0-||-2-2-2-2-0-0-0-0-2-2-2-2-0-0-0-0-||-3-3-3-3-2-2-2-2-3-3-3-3-2-2-2-2-||---------3-3-3-3---------3-3-3-3-|
|-0-0-0-0-1-1-1-1-0-0-0-0-0-0-0-0-||-1-1-1-1-0-0-0-0-1-1-1-1-1-1-1-1-||-0-0-0-0-0-0-0-0-2-2-2-2-2-2-2-2-||-2-2-2-2-0-0-0-0-2-2-2-2-2-2-2-2-||-3-3-3-3-2-2-2-2-0-0-0-0-0-0-0-0-||---------3-3-3-3-----------------|
|-1-1-1-1-1-1-1-1-1-1-1-1-1-1-1-1-||-1-1-1-1-1-1-1-1-0-0-0-0-0-0-0-0-||-2-2-2-2-2-2-2-2-0-0-0-0-0-0-0-0-||-3-3-3-3-3-3-3-3-0-0-0-0-0-0-0-0-||-3-3-3-3-3-3-3-3-2-2-2-2-2-2-2-2-||-1-1-1-1-1-1-1-1-3-3-3-3-3-3-3-3-|
|-0-0-0-0-1-1-1-1-0-0-0-0-1-1-1-1-||-1-1-1-1-0-0-0-0-1-1-1-1-0-0-0-0-||-0-0-0-0-0-0-0-0-0-0-0-0-0-0-0-0-||-2-2-2-2-0-0-0-0-2-2-2-2-0-0-0-0-||-3-3-3-3-2-2-2-2-3-3-3-3-2-2-2-2-||---------3-3-3-3---------3-3-3-3-|
Can’t you see, can’t you see|-1-1-1-1-1-1-1-1-0-0-0-0-0-0-0-0-||-1-1-1-1-1-1-1-1-0-0-0-0-0-0-0-0-||-2-2-2-2-2-2-2-2-1-1-1-1-1-1-1-1-||-3-3-3-3-3-3-3-3-0-0-0-0-0-0-0-0-||-3-3-3-3-3-3-3-3-2-2-2-2-2-2-2-2-||-1-1-1-1-1-1-1-1-0-0-0-0-0-0-0-0-|
Chorus|-0-0-0-0-0-0-0-0-1-1-1-1-1-1-1-1-||-1-1-1-1-1-1-1-1-1-1-1-1-1-1-1-1-||-2-2-2-2-2-2-2-2-2-2-2-2-2-2-2-2-||-2-2-2-2-2-2-2-2-3-3-3-3-3-3-3-3-||-0-0-0-0-0-0-0-0-3-3-3-3-3-3-3-3-||-----------------1-1-1-1-1-1-1-1-|
|-0-0-0-0-0-0-0-0-0-0-0-0-0-0-0-0-||-1-1-1-1-1-1-1-1-0-0-0-0-0-0-0-0-||-0-0-0-0-0-0-0-0-1-1-1-1-1-1-1-1-||-2-2-2-2-2-2-2-2-0-0-0-0-0-0-0-0-||-3-3-3-3-3-3-3-3-2-2-2-2-2-2-2-2-||-----------------0-0-0-0-0-0-0-0-|
|-0-0-0-0-0-0-0-0-1-1-1-1-1-1-1-1-||-1-1-1-1-1-1-1-1-1-1-1-1-1-1-1-1-||-2-2-2-2-2-2-2-2-2-2-2-2-2-2-2-2-||-2-2-2-2-2-2-2-2-3-3-3-3-3-3-3-3-||-0-0-0-0-0-0-0-0-3-3-3-3-3-3-3-3-||-----------------1-1-1-1-1-1-1-1-|
|-0-0-0-0-0-0-0-0-0-0-0-0-0-0-0-0-||-1-1-1-1-1-1-1-1-1-1-1-1-1-1-1-1-||-0-0-0-0-0-0-0-0-0-0-0-0-0-0-0-0-||-2-2-2-2-2-2-2-2-2-2-2-2-2-2-2-2-||-3-3-3-3-3-3-3-3-3-3-3-3-3-3-3-3-||---------------------------------|
|-1-1-1-1-1-1-1-1-1-1-1-1-1-1-1-1-||-1-1-1-1-1-1-1-1-0-0-0-0-0-0-0-0-||-2-2-2-2-2-2-2-2-0-0-0-0-0-0-0-0-||-3-3-3-3-3-3-3-3-0-0-0-0-0-0-0-0-||-3-3-3-3-3-3-3-3-2-2-2-2-2-2-2-2-||-1-1-1-1-1-1-1-1-3-3-3-3-3-3-3-3-|
|-0-0-0-0-0-0-0-0-0-0-0-0-0-0-0-0-||-1-1-1-1-1-1-1-1-1-1-1-1-1-1-1-1-||-0-0-0-0-0-0-0-2-2-2-2-2-2-2-2-2-||-2-2-2-2-2-2-2-2-2-2-2-2-2-2-2-2-||-3-3-3-3-3-3-3-3-0-0-0-0-0-0-0-0-||---------------------------------|
|-1-1-1-1-1-1-1-1-1-1-1-1-1-1-1-1-||-1-1-1-1-1-1-1-1-0-0-0-0-0-0-0-0-||-2-2-2-2-2-2-2-2-0-0-0-0-0-0-0-0-||-3-3-3-3-3-3-3-3-0-0-0-0-0-0-0-0-||-3-3-3-3-3-3-3-3-2-2-2-2-2-2-2-2-||-1-1-1-1-1-1-1-1-3-3-3-3-3-3-3-3-|
==========Sweet Darlin’==========
Intro/Verse|-0-0-0-0-1-1-1-1-0-0-0-0-1-1-1-1-||-1-1-1-1-0-0-0-0-1-1-1-1-0-0-0-0-||-0-0-0-0-0-0-0-0-2-2-2-2-0-0-0-0-||-2-2-2-2-0-0-0-0-2-2-2-2-0-0-0-0-||-3-3-3-3-2-2-2-2-0-0-0-0-2-2-2-2-||---------3-3-3-3---------3-3-3-3-|
|-1-1-1-1-1-1-1-1-10-10-10-10-10-10-10-10-||-2-2-2-2-1-1-1-1-10-10-10-10-10-10-10-10-||-3-3-3-3-1-1-1-1-10-10-10-10-10-10-10-10-||-3-3-3-3-3-3-3-3-12-12-12-12-12-12-12-12-||-1-1-1-1-3-3-3-3-12-12-12-12-12-12-12-12-||-0-0-0-0-1-1-1-1-10-10-10-10-10-10-10-10-|
Chorus|-0-0-0-0-0-0-0-0-0-0-0-0-0-0-0-0-0-0-0-0-0-0-0-0-2-2-2-2-2-2-2-2-||-2-2-2-2-2-2-2-2-5-5-5-5-5-5-5-5-2-2-2-2-2-2-2-2-3-3-3-3-3-3-3-3-||-0-0-0-0-0-0-0-0-0-0-0-0-0-0-0-0-0-0-0-0-0-0-0-0-4-4-4-4-4-4-4-4-||-3-3-3-3-3-3-3-3-6-6-6-6-6-6-6-6-3-3-3-3-3-3-3-3-4-4-4-4-4-4-4-4-||-4-4-4-4-4-4-4-4-7-7-7-7-7-7-7-7-4-4-4-4-4-4-4-4-2-2-2-2-2-2-2-2-||-------------------------------------------------0-0-0-0-0-0-0-0-|
==========Swing Low, Sweet Chariot========== No Guitar
Tap to rate this tab
 
# A B C D E F G H I J K L M N O P Q R S T U V W X Y Z