Shed Seven - She Left Me On Friday tab

She Left Me On Friday
Shed Seven
>From Let It Ride and Going For Gold

----10--------------------------------------|----10--------------------------------------|-8---8------------6--7---play whole---------|-x---x-----x3-----x--x---thing twice--------|-9---9------------7--8---through------------|-7---7---------0--5--6----------------------|
Verse--------10-10-10---------------------------|--------10-10-10---9--9--------------------|8---8---8--8--8----9--9--------------------|x---x---x--x--x----9--9-----x3-------------|9---9---9--9--9----7--7--------------------|7---7---7--7--7----------------------------|
------------------------------------------------|----9---9--11-11--------------------------------|----9---9--11-11-9--7-6-------------------------|----9---9--11-11-9--7-6-------------------------|----7---7--9--9--7--5-4-------------------------|------------------------------------------------|
play first part of chorus, but four times over, then play this:
To find out if....--2--2--0h2-0h2---0----0--------------------------|--2--2--0h2-0h2---0------0----------0-------------|--3--3--3---3-----1--------0h1-0h1----------------|--4--4--4---4-----2-------------------------------|--4--4--4---4-----2-------------------------------|--2--2--0h2-0h2---0-------------------------------|
strum these...---------------10---------------------------------------|---------------10---------------------------------------|------8-8-------8---------------------------------------|------x-x-------x---------------------------------------|------9-9-------9---------------------------------------|------7-7-------7---------------------------------------|
then hit this F# once:
--------2------------------------------|--------2------------------------------|--------3------------------------------|--------4------------------------------|--------4------------------------------|--------2------------------------------|
then do the verse again,then the bridge but do it twice, and on the secondtime, instead of the rundowns between the F# and Echords play this.....---2----------4---0----------8------------------|---2--------------0-----------------------------|---3--3h-3h5------1----7-7h8--------------------|---4--------------2-----------------------------|---4--------------2-----------------------------|---2--------------0-----------------------------|
then strum this loads.....---10-----------------------------------|---10-----------------------------------|---8------------------------------------|---x------------------------------------|---9------------------------------------|---7------------------------------------|
do the verse(do not play the single F# this time).Then do the bridge, and at the end of the bridge,strum these chords.(to find out if all the Friday's you choose...)------------------------------------------------|------------------------------------------------|---7------------------9-------------------------|---7------------------9-------------------------|---5------------------7-------------------------|------------------------------------------------|
then strum this loads.....---10-----------------------------------|---10-----------------------------------|---8------------------------------------|---x------------------------------------|---9------------------------------------|---7------------------------------------|
SoloThis is exactly how Paul played it at Reading 98.this first bit is with wah-wah......-------------------------------------------------|-------------------------------------------------|-------------------------------------------------|-------------------------------------------x3----|--3po0-0-3po0-0-3po0-3po0-0-3po0-0---------------|-----------------------------------3-------------|
----------------------------------------|----------------------------------------|----------------------------------------|----------------------------------------|--3-3<<5-5--5-5-7-----------------------|--------------------0--0----------------|
--------------------------------------------------|--------------------------------------------------|--------------------5h7-7-7-7--0h5-5-5------------|---5h7-7-7-0h5-5-5--------------------------------|--------------------------------------------------|--------------------------------------------------|
------------12-------15--------12------------|---------------------------------------------|--14-14-14-----14-14----14--14-----14-14-----|---------------------------------------------|---------------------------------------------|---------------------------------------------|
---------------------------------------------|--13~~~~13-15-12-12h13h12--------------------|---------------------------14-12-10----------|---------------------------------------------|---------------------------------------------|---------------------------------------------|
-----------------------------------------------------|-----------------------------------------------------|-10-10po9-9h10po9------------------------------------|------------------12-10-12---------------------------|-----------------------------------------------------|-----------------------------------------------------|
-------------------------------------------------|-------------------------------------------------|-------------------------------------------------|--12-12-9-9h10po9--------------------------------|------------------12-----------------------------|-------------------------------------------------|
------------------------------------------------|----x-x--5-----x--7----x--5-6-7-----------------|----x-x--5-----x--7----x--5-6-7-----------------|----x-x--5-----x--7----x--5-6-7-----------------|-0--x-x------0-x-----0-x------------------------|------------------------------------------------|
Guitar then stops and comes in on the bridge. but,after the "All the style she's got." D and E chordslike this....(strum)------------------------------------------------|------------------------------------------------|---7------------------9-------------------------|---7------------------9-------------------------|---5------------------7-------------------------|------------------------------------------------|
play these......(strum)------------------------------------------|------------------------------------------|-----7-------6----------------------------|-----7-------7----------------------------|-----5-------7----------------------------|-------------5----------------------------|
then play....----------------------------------------------|----------------------------------------------|----------------------------------------------|----------------------------------------------|----------------------------------------------|---7-7-5-5-4-4-5-4h5po4-----------------------|
finally, play........
----10----------x-x-x--------------------|----10----------x-x-x--------------------|-8---8----------x-x-x--------------------|-x---x----------x-x-x--------------------|-9---9----------x-x-x--------------------|-7---7----------x-x-x--------------------|alternate between pick scratches and chords beforeending on a quick few strums of.....
---10-----------------------------------|---10-----------------------------------|---8------------------------------------|---x------------------------------------|---9------------------------------------|---7------------------------------------|
thats it! any requests, just e-mail me. cheers, Nick
Tap to rate this tab
 
# A B C D E F G H I J K L M N O P Q R S T U V W X Y Z