Shels – The Spirit Horse tab

Intro:

------------------|------------------|--7--------10-----|------------------|------------------| x36--------10-------|
------------------|------------------|--5--------8------|------------------|------------------|4--------8--------|
Guitar 2:
------------------|------------------|------------------|------------------|0-0-1--3--5-5--0--| x2------------------|
------------------|------------------|------------------|------------------|-----3-1----------|4--4-----44-33----|
------------------|------------------|------------------|------------------|0-0-1--3--5-5--0--|------------------|
------------------|------------------|------------------|------------------|-----3-1----------|4--4-----44-33----|
------------------|------------------|------------------|------------------|0-0-1--3--5-5--0--|------------------|
------------------|------------------|------------------|------------------|-----6--5--3-3----|4-----------------|
Then repeat the intro twice during the vocals: Murderer of mine Why are you still here? Do you see that Ive died... Theres nothing more... Murderer of mine Youre so familiar... Oooh Smiling in the mirror
----------------|----------------|----------------|
8888888888888888|8888888888888888| Na-na-naaaa-na6666666666666666|
--------------------------------|--------------------------------|--------------------------------|
12121212121212121212121212121212|12121212121212121212121212121212| Na-na-NAAAAA-na10101010101010101010101010101010|
----------------|----------------|----------------|
6666666666666666|6666666666666666| Na-na-naaaa-na4444444444444444|
--------------------------------|--------------------------------|--------------------------------|
10101010101010101010101010101010| 8 8 8 8 8 8 8 8 8 8 8 8 8 8 8 8| Na-na-naaaa-na 8 8 8 8 8 8 8 8 8 8 8 8 8 8 8 8|
And that's pretty much it until the end. There's a lot going on alongside the power chords but I'll leave that for someone else to figure out. Tabbed by averagejoe89
Please rate this tab:
x1.0