Dare You tab with lyrics by Shinedown - Easy chords and tabs for guitar

Shinedown – Dare You tab

INTRO  (Riff #1)
Guitar 1 (Clean)

|----------------------------------||----------------------------------||--6-6-6-9-9-9-6-6-6-6-4-4-4-4-----||--7-7-7-7-7-7-7-4-4-4-2-2-2-2-----| X2|----------------------------------||----------------------------------|
Guitar 2 (Distortion)
|---------------------------||---------------------------||---------------------------||---(2)-(2)-----------------||--0-0-0-0-0-0-0-0----------| (Repeat as needed)|---------------------------|
1st Verse Guitar 1 (Clean)
|--------------------------------------||--------------------------------------||--6-6-6-9-9-9-6-6-6-6-4-4-4-4---------||--7-7-7-7-7-7-7-4-4-4-2-2-2-2---------| X6|--------------------------------------||--------------------------------------|
Guitar 2 (Distortion)( 6th time, end on…)|------------------------------------| |---------------------||------------------------------------| |--------2-2-2-2------||------------------------------------| |----2-2-2-2-2-2------||------------------------------------| |----2-2-2-2-2-2------||--0-0-0-0-0-0-0-0-0-0-0-0-0-0-------| X5 |--0-0-0-0-0-0-0------||------------------------------------| |---------------------|
Pre-Chorus Guitar 1 (Distortion)
|---------------------------------------------------||---------------------------------------------------||-------------------6-6-6-6-6-6-6-6-----------------||--2-2-2-2-2-2-2-2-6-6-6-6-6-6-6-6------------------||--2-2-2-2-2-2-2-2-4-4-4-4-4-4-4-4-5-6-5-6-2--------||--0-0-0-0-0-0-0-0----------------------------5~----|
Guitar 2 (Distortion)
|---------------------------------------------------||----------------------------------------------2----||-------------------6-6-6-6-6-6-6-6-7-6-7-6---2-----||--2-2-2-2-2-2-2-2-6-6-6-6-6-6-6-6-7-6-7-6-2-2------||--2-2-2-2-2-2-2-2-4-4-4-4-4-4-4-4-5-4-5-4-2-0------||--0-0-0-0-0-0-0-0--------------------------0-------|
Guitar 3 (or Guitar 1 can take this part)
|------------------------------------------------------||-------------------7---------------10-9-10-9-7-7------||--9---------------------------------------------------||------------------------------------------------------||------------------------------------------------------||------------------------------------------------------|
Guitar 1 Continued
|----------------------------------------------------------------------||----------------------------------------------------------------------||-------------------6-6-6-6-6-6-6-6-7-7-7-7-7-7-7-7-9-9---9-9-9-9------||--2-2-2-2-2-2-2-2-6-6-6-6-6-6-6-6-7-7-7-7-7-7-7-7-9-9---9-9-9-9-------||--2-2-2-2-2-2-2-2-4-4-4-4-4-4-4-4-5-5-5-5-5-5-5-5-7-7---7-7-7-7-------||--0-0-0-0-0-0-0-0-----------------------------------------------------|
Guitar 2 Continued
|----------------------------------------------------------------------||----------------------------------------------------------------------||-------------------6-6-6-6-6-6-6-6-7-7-7-7-7-7-7-7-9-9---9-9-9-9------||--2-2-2-2-2-2-2-2-6-6-6-6-6-6-6-6-7-7-7-7-7-7-7-7-9-9---9-9-9-9-------||--2-2-2-2-2-2-2-2-4-4-4-4-4-4-4-4-5-5-5-5-5-5-5-5-7-7---7-7-7-7-------||--0-0-0-0-0-0-0-0-----------------------------------------------------|
Guitar 3 (or Guitar 1)
|--------------------------------------------------------------------------||-------------------7----------------10--------------10-10-12-12-12-12-----||--9-----------------------------------------------------------------------||--------------------------------------------------------------------------||--------------------------------------------------------------------------||--------------------------------------------------------------------------|
Chorus Guitars 1 &2 (Distortion)
|--------------------------------------||--2-2-2-2-2-2-2-2---------------------||--2-2-2-2-2-2-2-2-6-6-6-6-7-7-7-7-----||--2-2-2-2-2-2-2-2-6-6-6-6-7-7-7-7-----| X2|--0-0-0-0-0-0-0-0-4-4-4-4-5-5-5-5-----||--------------------------------------|
Guitars 1 & 2 Continued
|--------------------------------------||--------------------------------------||--4-4-4-4-4-4-6-6-7-7-7-7-7-7-7-7-----||--4-4-4-4-4-4-6-6-7-7-7-7-7-7-7-7-----||--2-2-2-2-2-2-4-4-5-5-5-5-5-5-5-5-----||--------------------------------------|
Guitars 1 & 2 Continued
|------------------------------------|-------------------------------||--2-2-2-2-2-2-2-2------------------|-2-2-2-2-2-2-2-2----------------||--2-2-2-2-2-2-2-2-6-6-6-6-7-7-7-7-|-2-2-2-2-2-2-2-2-6-6-6-6-7-7-----||--2-2-2-2-2-2-2-2-6-6-6-6-7-7-7-7-|-2-2-2-2-2-2-2-2-6-6-6-6-7-7-----||--0-0-0-0-0-0-0-0-4-4-4-4-5-5-5-5-|-0-0-0-0-0-0-0-0-4-4-4-4-5-5-----||------------------------------------|-------------------------------|
Verse 2 Guitar 1
|---------------------------------||---------------------------------||--6-6-6-9-9-9-6-6-6-6-4-4-4-4----||--7-7-7-7-7-7-7-4-4-4-2-2-2-2----| X8|---------------------------------||---------------------------------|
Guitar 2 (listen for timing, enter with drums)
|-----------------------|----------------------------------------||--5-7—7-7/9-(9)-(9)-(7)-|--5---5---7---7---9---9---7---7---7----||------6--------6-------|----6---6---6---6---6---6---6---6-------||-----------------------|----------------------------------------| X3|-----------------------|----------------------------------------||-----------------------|----------------------------------------|
Pre-Chorus (Same as first Pre-Chorus) Guitar 1 (Distortion)
|---------------------------------------------------||---------------------------------------------------||-------------------6-6-6-6-6-6-6-6-----------------||--2-2-2-2-2-2-2-2-6-6-6-6-6-6-6-6------------------||--2-2-2-2-2-2-2-2-4-4-4-4-4-4-4-4-5-6-5-6-2--------||--0-0-0-0-0-0-0-0----------------------------5~----|
Guitar 2 (Distortion)
|---------------------------------------------------||----------------------------------------------2----||-------------------6-6-6-6-6-6-6-6-7-6-7-6---2-----||--2-2-2-2-2-2-2-2-6-6-6-6-6-6-6-6-7-6-7-6-2-2------||--2-2-2-2-2-2-2-2-4-4-4-4-4-4-4-4-5-4-5-4-2-0------||--0-0-0-0-0-0-0-0--------------------------0-------|
***Guitar 3 is playing a faint solo in the back round… too faint to make out all the it sounds like it starts like… (help here please)
|--16b17-16b17-16b17-16b17-12h14012h14p12-------------------------------||---------------------------------------------12-14---------------------||----------------------------------------------------12-14--------------||-------------------------------------------------------------arrrggg---||-----------------------------------------------------------------------||-----------------------------------------------------------------------|
Guitars 1 & 2 Continued
|-------------------------------------||-------------------------------------||--4-4-4-4-4-4-6-6-7-7-7-7-7-7-7-7----||--4-4-4-4-4-4-6-6-7-7-7-7-7-7-7-7----||--2-2-2-2-2-2-4-4-5-5-5-5-5-5-5-5----||-------------------------------------|
Guitars 1 & 2 Continued
|-----------------------------------|---------------------------------||--2-2-2-2-2-2-2-2------------------|-2-2-2-2-2-2-2-2-----------------||--2-2-2-2-2-2-2-2-6-6-6-6-7-7-7-7-|-2-2-2-2-2-2-2-2-6-6-6-6-7-7------||--2-2-2-2-2-2-2-2-6-6-6-6-7-7-7-7-|-2-2-2-2-2-2-2-2-6-6-6-6-7-7------||--0-0-0-0-0-0-0-0-4-4-4-4-5-5-5-5-|-0-0-0-0-0-0-0-0-4-4-4-4-5-5------||------------------------------------|--------------------------------|
Chorus Repeat Chorus 1 already tabbed above) Bridge Guitar 1
|---------------------------------||-------------------------2-------||--6-6-6-6-6-6-6-6-4-4-4-2-4------||--6-6-6-6-6-6-6-6-4-4-4-2-4------| X2|--4-4-4-4-4-4-4-4-2-2-2---2------||---------------------------------|
Guitar 2 (faint in back round… and I could use some help please)
|--16-14-16-14------------------------||---------------12h14p12----12-14-----||-------------------------14----------||-------------------------------------| (X2 – just improvise)|-------------------------------------||-------------------------------------|
Guitar 1 Continued
|---------------------------------||---------------------------------||--6-6-6-6-6-6-6-6-9-9-9-9-9-9----||--6-6-6-6-6-6-6-6-9-9-9-9-9-9----||--4-4-4-4-4-4-4-4-7-7-7-7-7-7----||---------------------------------|
Guitar 2 (faint in back round… and I could use some help please)
|--16-14-16-14-------------------------||----------------12h14p12----12-14-----||--------------------------14----------||--------------------------------------| (again, just improvise)|--------------------------------------||--------------------------------------|
Then opening riff… X2 Chorus X6 Outro lead (or so it go something like)
|------------------------------------------------------------||--14b15b14-14b15b14-17b18b17-14b15b14--12--12-14-12---------||--------------------------------------------14--14----14----||------------------------------------------------------------||------------------------------------------------------------||------------------------------------------------------------|
Please rate this tab:
x1.0