Siakol - Asahan Mo tab version 1



 Song Title:Asahan Mo

 Artist:Siakol

 Tuning:E B G D A E

 Intro:

e|--15-15----------15-15----------15-15-----------| b|--------15-------------15-------------15--------| g|-----------12-12----------12-12----------12-12--| d|------------------------------------------------| a|------------------------------------------------| e|------------------------------------------------|
Adlib:
e|--------------------------------------------------------------------| b|----------12h13-13b-12-13s12----12---------12h13-13b-12-13s12----12-| g|--14b-14b--------------------14----14b-14b--------------------14----| d|--------------------------------------------------------------------| a|--------------------------------------------------------------------| e|--------------------------------------------------------------------|
---------12-12-12-----------------------------------------| -15b-15b----------15-13s12-13-12h13-----------------------| ------------------------------------14-114-12s11-12-11h12-| ----------------------------------------------------------| ----------------------------------------------------------| ----------------------------------------------------------|
----------------------------------------| -------------12h13-15-13-13h15----12h13-| ----11-12h14-------------------14-------| -14-------------------------------------| ----------------------------------------| ----------------------------------------|
--------------------------------------------------------------------| ----------12h13-13b-12-13s12----12---------12h13-13b-12-13s12----12-| --14b-14b--------------------14----14b-14b--------------------14----| --------------------------------------------------------------------| --------------------------------------------------------------------| --------------------------------------------------------------------|
---------12-12-12----------------------------------------------12-| -15b-15b----------15-13s12-13-12----12-13-12h13----12-13-15-13----| ---------------------------------14-------------14----------------| ------------------------------------------------------------------| ------------------------------------------------------------------| ------------------------------------------------------------------|
--------------------------------| --------------------------------| -14-11h12----------11-11h12-12--| ----------14-11-12--------------| --------------------------------| --------------------------------|
Outro: (im not sure about this part)
e|--------------------------------------------------------------------| b|----------12h13-13b-12-13s12----12---------12h13-13b-12-13s12----12-| g|--14b-14b--------------------14----14b-14b--------------------14----| d|--------------------------------------------------------------------| a|--------------------------------------------------------------------| e|--------------------------------------------------------------------|
-------------15-15--------------| -15b-15b-15b-------15-13-15-15b-| --------------------------------| --------------------------------| --------------------------------| --------------------------------|
----------------------------------------------------------| -12h13-13-12h13----------------------12-13-15-13-12-------| ----------------14-11h12----11-12-14----------------14-12-| -------------------------14-------------------------------| ----------------------------------------------------------| ----------------------------------------------------------|
-------------------------------------------------------------------| ---------12h13-13b-12-13s12----12---------12h13-13b-12-13s12----12-| -14b-14b--------------------14----14b-14b--------------------14----| -------------------------------------------------------------------| -------------------------------------------------------------------| -------------------------------------------------------------------|
-------------15-15--------------| -15b-15b-15b-------15-13-15-15b-| --------------------------------| --------------------------------| --------------------------------| --------------------------------|
----15----------------------------------------------| -15----15-15-13-12h13-------------------------------| ----------------------14-11h12----------------------| -------------------------------14-12-14-------------| ----------------------------------------15-14-12-14-| ----------------------------------------------------|
-------------------------------------------------------------------| ---------12h13-13b-12-13s12----12---------12h13-13b-12-13s12----12-| -14b-14b--------------------14----14b-14b--------------------14----| -------------------------------------------------------------------| -------------------------------------------------------------------| -------------------------------------------------------------------|
-------------15-15--------------| -15b-15b-15b-------15-13-15-15b-| --------------------------------| --------------------------------| --------------------------------| --------------------------------|
----15----------------------------------------------| -15----15-15-13-12h13-------------------------------| ----------------------14-11h12----------------------| -------------------------------14-12-14-------------| ----------------------------------------15-14-12-14-| ----------------------------------------------------|
-------------------------------------------------------------------| ---------12h13-13b-12-13s12----12---------12h13-13b-12-13s12----12-| -14b-14b--------------------14----14b-14b--------------------14----| -------------------------------------------------------------------| -------------------------------------------------------------------| -------------------------------------------------------------------|
-------12-12--------------------------| -15-15-------15-13s12-13-12-10h12-13--| --------------------------------------| --------------------------------------| --------------------------------------| --------------------------------------|
***********************The End***********************
Tap to rate this tab
 
# A B C D E F G H I J K L M N O P Q R S T U V W X Y Z