Sikth - Scent Of The Obscene tab

Artist: SikTh
Title: Scent Of The Obscene
Album: The Trees Are Dead & Dried Out, Wait For Something Wild 
Tabber: a_guy_called_richard@hotmail.com

Tuning: C# G# C# F# A# D# (Drop D, half a step down)


I haven't tabbed the second guitar yet, but i will get round to it. 
Most of the time all the second guitar plays is the same as the first guitar, but i
will tab the second one out one day.



Key:
L = Left hand tap
R = Right hand tap




Intro 1: With wah|-0-------0--------0-------------||-0-------0--------0-------------||-7-------12-------9-------------| x2|-x-------x--------x-------------||-5-------10-------7-------------||--------------------------------|
|----------||----------||----------||-0----0-0-||-0----0-0-||-0----0-0-|PM. . .
Intro 2:|---------------------------------------------------------||------0h3-----------0h3-----------0h3--------0h4---------||-0h3h6---h6----0h3h6---h6----0h3h6---h6-0h4h7---h7-------| x2|------------2-------------2-------------------------0--0-||------------2-------------2-------------------------0--0-||------------2-------------2-------------------------0--0-|
|-------------||-------------||-------------||-11-11-4--4--||-0--0--5--5--||-------4--4--|
|------0h3-----------0h3-----------0h3--------0h4---------||-0h3h6---h6----0h3h6---h6----0h3h6---h6-0h4h7---h7-------| |---------------------------------------------------------|x2|------------2-------------2-------------------------0--0-||------------2-------------2-------------------------0--0-||------------2-------------2-------------------------0--0-|
|--------------||--------------||--------------||-11-11-4--4-5-||-0--0--5--5-5-||-------4--4-5-|
Verse 1: L L R L L R L L R L L R|-------------------------------------------------------||----------0h3------------------------------------------||-----0h3h6--------0h3--------7-12----------------------||---------------------------5--------7-14---7-14---5-12-||-2-2----------2-2-----2-2---------5--------------------||-2-2----------2-2-----2-2----------------7------5------|PM. . . . . .
|-----------------------------------------------------||-----------------------------------------------------||-----------------------------0h3-----0h3h7-------3---||-------------------------------------------------2---||-2--0--2-0--2--0--2--0-2--0------0-0-------0-0-0-----||-2--0--2-0--2--0--2--0-2--0------0-0-------0-0-0-----|PM . . . . .
L L R L L R L L R L L R|----------0h3------------------------------------------||-----0h3h6--------0h3----------------------------------||-----------------------------7-12----------------------||---------------------------5--------7-14---7-14---5-12-||-2-2----------2-2-----2-2---------5--------------------||-2-2----------2-2-----2-2----------------7------5------|PM. . . . . .
L L R L L R|----------------------------------------------------------------||----------------------------------------------------------------||------------------------------------------7-12------------------||-------------------------------11-11--4-5--------7-14h0-3---0-2-||-2--0--2-0--2--0--2-0----0--0--0--0---5--------5--------3---0-2-||-2--0--2-0--2--0--2-0----0--0---------4-----------------3---0-2-|PM .
Verse 2: L L R L L R L L R L L R|---------------------------------------------------||------0h3------------------------------------------||-0h3h6--------0h3--------7-12----------------------||-----------------------5--------7-14---7-14---5-12-||----------2-2-----2-2---------5--------------------||----------2-2-----2-2----------------7------5------|PM . . . .
|-----------------------------------------------------||-----------------------------------------------------||-----------------------------0h3-----0h3h7-------3---||-------------------------------------------------2---||-2--0--2-0--2--0--2--0-2--0------0-0-------0-0-0-----||-2--0--2-0--2--0--2--0-2--0------0-0-------0-0-0-----|PM . . . . .
L L R L L R L L R L L R|-------------------------------------------------------||----------0h3------------------------------------------||-----0h3h6--------0h3--------7-12----------------------||---------------------------5--------7-14---7-14---5-12-||-2-2----------2-2-----2-2---------5--------------------||-2-2----------2-2-----2-2----------------7------5------|PM. . . . . .
L L R L L R L L R L L R L L R|--------------------------------------------------------------------------||--------------------------------------------------------------------------||-----------------------------------------7-12-----------------------------||------------------------------11-11--4-5--------7-14---7-14---5-12---4-11-||-2-0--2-0--2--0--2-0----0--0--0--0---5--------5---------------------------||-2-0--2-0--2--0--2-0----0--0---------4---------------7------5------4------|PM
Chorus:|-2-2---2-3-2-3-2---2-2--3-2-3-2-----||-3-3---3-3-3-3-3---3-3--3-3-3-3-----||-2-2---2-2-2-2-2---2-2--2-2-2-2-----||-0-0---0-0-0-0-0---0-0--0-0-0-0-----||-----0-----------0--------------0-2-||-----0-----------0--------------0-2-|PM . .
|-------------------------------------------------||-------------------------------------------------||---9---9---9--9----7--7--7-7---5--5--5-5---12----||---10--10--10-10---9--9--9-9---7--7--7-7---x--x8-||-0-0---0---0--0--0-0--0--0-0-0-0--0--0-0-0-10----||-0---------------0-----------0-----------0-------|PM. . . .
|-2-2---2-3-2-3-2---2-2--3-2-3-2-----||-3-3---3-3-3-3-3---3-3--3-3-3-3-----||-2-2---2-2-2-2-2---2-2--2-2-2-2-----||-0-0---0-0-0-0-0---0-0--0-0-0-0-----||-----0-----------0--------------0-2-||-----0-----------0--------------0-2-|
PM . . L L R L L R L L R|--------------------------------------------------------------||--------------------------------------------------------------||---9---9---9--9----7--7--7-7---5--5--5-5----------------------||---10--10--10-10---9--9--9-9---7--7--7-7---7-14---7-14---5-12-||-0-0---0---0--0--0-0--0--0-0-0-0--0--0-0-5--------------------||-0---------------0-----------0------------------7------5------|PM. . .
|-2-2---2-3-2-3-2---2-2--3-2-3-2-----||-3-3---3-3-3-3-3---3-3--3-3-3-3-----||-2-2---2-2-2-2-2---2-2--2-2-2-2-----||-0-0---0-0-0-0-0---0-0--0-0-0-0-----||-----0-----------0--------------2-2-||-----0-----------0--------------2-2-|PM . .
|-------------------------------------------------||-------------------------------------------------||---9---9---9--9----7--7--7-7---5--5--5-5---12----||---10--10--10-10---9--9--9-9---7--7--7-7---x--x8-||-0-0---0---0--0--0-0--0--0-0-0-0--0--0-0-0-10----||-0---------------0-----------0-----------0-------|PM. . . .
|-2-2---2-3-2-3-2---2-2--3-2-3-2-----||-3-3---3-3-3-3-3---3-3--3-3-3-3-----||-2-2---2-2-2-2-2---2-2--2-2-2-2-----||-0-0---0-0-0-0-0---0-0--0-0-0-0-----||-----0-----------0--------------2-2-||-----0-----------0--------------2-2-|
PM . . L L R L L R L L R L L R L L R|--------------------------------------------------------------------||--------------------------------------------------------------------||---9---9---9--9----7--7----5----------------------------------------||---10--10--10-10---9--9----7------7-14---7-14---5-12---4-11---2-9-0-||-0-0---0---0--0--0-0--0--0-0----5---------------------------------0-||-0---------------0-------0-------------7------5------4------2-----0-|PM. . . Let ring for a bit^
Interlude: Distortion off R R |------------||-----12p7h8-||-12p9-------| x12|------------||------------||------------|
R R |------------||-----12p7h8-||-12p9-------| x4 with drums|------------||------------||------------|
R R R R|-16p10-14p10h12-19p10-17p10h12-||-------------------------------||-------------------------------||-------------------------------||-------------------------------||-------------------------------|
R L|----------------||-13\12/13-------||----------12\10-| x2|----------------||----------------||----------------|
R R R|---------------||---------------||-16p14-17------| x4|---------16p14-||---------------||---------------|
R R |------------||-----12p7h8-||-12p9-------| x4 |------------||------------||------------|
R R |------------||-----12p8p7-||-12p9-------| x4 |------------||------------||------------|
R R R R|----------------------19p17-||---------19p17--------------||-19p15h17-----19p15h17------| x2|----------------------------||----------------------------||----------------------------|
|---------------------||---------------------||-11-8----8-----------||------10---10-7-10-7-||---------------------||---------------------|
Distortion on
|-------------------------------------------------------------||----------12-14----------12-14-17\15 15\14-14\12-12\10-10\12-||-11-13-14-------11-13-14-------x--x--x--x--x--x--x--x--x--x--||-------------------------------14\12-12\11-11\9--9-\7--7-\9--||-------------------------------------------------------------||-------------------------------------------------------------|
R R|--------------||------13p8h10-||-14p10--------| x3|--------------||--------------||--------------|
R R |------------||-----12p7h8-||-12p9-------||------------||------------||------------|
R R|--------------||------12p8h10-||-12p10--------| x4|--------------||--------------||--------------|
R R R R R R R R|-22p7-19p7h10-17p7-15p7h10-14p7-15p7h10-12p7-14p7h10-||-----------------------------------------------------||-----------------------------------------------------||-----------------------------------------------------||-----------------------------------------------------||-----------------------------------------------------|
R R R R|---------------------------||-15p8-11p8h10-16p8-15p8h10-||---------------------------| x2|---------------------------||---------------------------||---------------------------|
R R R R R R R R|-22p7-19p7h10-17p7-15p7h10-14p7-15p7h10-12p7-14p7h10-||-----------------------------------------------------||-----------------------------------------------------||-----------------------------------------------------||-----------------------------------------------------||-----------------------------------------------------|
R R |------------||-----12p7h8-||-12p9-------| x4|------------||------------||------------|
R R |------------||-----12p8p7-||-12p9-------| x4|------------||------------||------------|
R R R R|----------------------19p17-||---------19p17--------------||-19p15h17-----19p15h17------| x2|----------------------------||----------------------------||----------------------------|
|------------------------------5-9-||----------------------------6-----||-10-7---7-----------------4-------||------9---9-6-9-6-------5---------||------------------8-0-4-----------||----------------------------------|
Bridge:|-0--------0--------||-0--------0--------||-7--------12-------||-x--------x--------||-5--------10-------||-------------------|
|----------------------0h3------||------0h3--------0h3h6---h6----||-0h3h6---h6--------------------||-------------------------------||------------2---------------2--||------------2---------------2--|PM . .
L L R L L R L L R L L R L L R|--------------------------------------------------||--------------------------------------------------||--------------------------------------------------||-------11-11--4---7-14---7-14---5-12---4-11---2-9-||-0--0--0--0---5-5---------------------------------||-0--0---------4--------7------5------4------2-----|
Chorus:|-2-2---2-3-2-3-2---2-2--3-2-3-2-----||-3-3---3-3-3-3-3---3-3--3-3-3-3-----||-2-2---2-2-2-2-2---2-2--2-2-2-2-----||-0-0---0-0-0-0-0---0-0--0-0-0-0-----||-----0-----------0--------------0-2-||-----0-----------0--------------0-2-|PM . .
|-------------------------------------------------||-------------------------------------------------||---9---9---9--9----7--7--7-7---5--5--5-5---12----||---10--10--10-10---9--9--9-9---7--7--7-7---x--x8-||-0-0---0---0--0--0-0--0--0-0-0-0--0--0-0-0-10----||-0---------------0-----------0-----------0-------|PM. . . .
|-2-2---2-3-2-3-2---2-2--3-2-3-2-----||-3-3---3-3-3-3-3---3-3--3-3-3-3-----||-2-2---2-2-2-2-2---2-2--2-2-2-2-----||-0-0---0-0-0-0-0---0-0--0-0-0-0-----||-----0-----------0--------------0-2-||-----0-----------0--------------0-2-|
PM . . L L R L L R L L R|--------------------------------------------------------------||--------------------------------------------------------------||---9---9---9--9----7--7--7-7---5--5--5-5----------------------||---10--10--10-10---9--9--9-9---7--7--7-7---7-14---7-14---5-12-||-0-0---0---0--0--0-0--0--0-0-0-0--0--0-0-5--------------------||-0---------------0-----------0------------------7------5------|PM. . .
|-2-2---2-3-2-3-2---2-2--3-2-3-2-----||-3-3---3-3-3-3-3---3-3--3-3-3-3-----||-2-2---2-2-2-2-2---2-2--2-2-2-2-----||-0-0---0-0-0-0-0---0-0--0-0-0-0-----||-----0-----------0--------------2-2-||-----0-----------0--------------2-2-|PM . .
|-------------------------------------------------||-------------------------------------------------||---9---9---9--9----7--7--7-7---5--5--5-5---12----||---10--10--10-10---9--9--9-9---7--7--7-7---x--x8-||-0-0---0---0--0--0-0--0--0-0-0-0--0--0-0-0-10----||-0---------------0-----------0-----------0-------|PM. . . .
|-2-2---2-3-2-3-2---2-2--3-2-3-2-----||-3-3---3-3-3-3-3---3-3--3-3-3-3-----||-2-2---2-2-2-2-2---2-2--2-2-2-2-----||-0-0---0-0-0-0-0---0-0--0-0-0-0-----||-----0-----------0--------------2-2-||-----0-----------0--------------2-2-|
PM . . R R R R |-----------------------------------------------------||-----------------------------------------------------||---9---9---9--9----7--7----5-------------------------||---10--10--10-10---9--9----7-------14-----14-11--11--||-0-0---0---0--0--0-0--0--0-0---0-12---0-12---12--12--||-0---------------0-------0-------------------11--11--|PM. . .
|-----------------------------||-----------------------------||-----------------------------||-----------------------0-----||-----------------------------||-0-9h11--0-9h11--0-5h7-------|
|---------------------||---------------------||------------14-------||-----14-0-12------14-||-0-12---------0-12---||---------------------|
Outro:
|-------------------------------10-9---||--------------------------------------||----------------0h3------------7--6---||-2--2------2-2------2--2--0-2---------||-2--2------2-2------2--2--0-2---------||-2--2------2-2------2--2--0-2---------|PM. . . . . . . .
|--------------------------------------------||--------------------------------------------||----------------------0h3-----0h3h6-------3-||--------------------------2-2-------------2-||--------------------------2-2---------------||-2--0--2-0--2-0--2-0------2-2-------0-0-0---|PM . . . . .
L L R L L R L L R L L R|-------------------------------------------------------||-------------------------------------------------------||-----------------------------7-12----------------------||---------------------------5--------7-14---7-14---7-12-||----------------------------------5--------------------||-2--0--2-0--2-0--2-0--2-0----------------7------7------|
|------------------------------------------------------------------||------------------------------------------------------------------||--------------------------------------------------------------0h3-||---5-12---4-11---2-9-----------------------------0h3-2-2-0h3h6----||-----------------------------------------------------2-2----------||-5------4------2------2--0--2-0--2--0--2-0--2--0-----2-2----------|PM . .
L L R L L R L L R |-----------------------------------------------------||-----------------------------------------------------||-----------------------------7-12--------------------||---------------------------5--------7-14---7-14-4--4-||----------------------------------5-------------5--5-||-2--0--2-0--2-0--2-0--2-0----------------7------4--4-|
|------------------------------------------------------------------||------------------------------------------------------------------||--------------------------------------------------------------0h3-||---5-12---4-11---2-9-----------------------------0h3-2-2-0h3h6----||-----------------------------------------------------2-2----------||-5------4------2------2--0--2-0--2--0--2-0--2--0-----2-2----------|PM . .
L L R L L R L L R |-----------------------------------------------------||-----------------------------------------------------||-----------------------------7-12--------------------||---------------------------5--------7-14---7-14-4--4-||----------------------------------5-------------5--5-||-2--0--2-0--2-0--2-0--2-0----------------7------4--4-|
|---------------||---------------||---------------| Play that loads of times.|---------------||---------------||-2--0--2-0-2-0-|
There you go. finished The Legend
Tap to rate this tab
 
# A B C D E F G H I J K L M N O P Q R S T U V W X Y Z