Silverchair – Madman Live tab

-------------------------------------------------------------------------------
	                  Madman Live - Silverchair
-------------------------------------------------------------------------------
Tabbed by:qzuiilw	
Email:qzuiilw@hotmail.com

Tuning:Drop-d

Live from Melbourne Park in 1999 awesome gig check it out on youtube
especially for the timing the end part is heaps deferent to the rest.
every "0" on the E string is palm muted again listen to the recording
to get the idea.


|-----------------------------------------------||-----------------------------------------------||-----------------------------------------------||-----------------------------------------------||/5-------5-5-5----------/5-------5-5-5---------||-0-0-0-0-0-0-0-0-0-0-0---0-0-0-0-0-0-0-0-0-0-0-|
|-----------------------------------------------||-----------------------------------------------||/7-------/7-7-7---------/7------/7-7-7---------||/7-------/7-7-7---------/7------/7-7-7---------||/5-------/5-5-5---------/5-------5-5-5---------||-0-0-0-0--0-0-0-0-0-0-0--0-0-0-0-0-0-0-0-0-0-0-|
|-----------------------------------------------||-----------------------------------------------||-----------------------------------------------||-----------------------------------------------||-----------------------------------------------||-2p0p2p0-2h3-3-3p00---2p0p2p0-2h3-3-3-3-3p000--||-2p0p2p0-2h3-3-3p00---2p0p2p0-2h3-3-3-3-3p000--|
|------------------------------||--8---888---888---888---------||--7---777---777---777--10br---||--0---000---000---000---------||------------------------------||---------------------------\--|
|---------------------------------------------||---------------------------------------------||---------------------------------------------||---------------------------------------------||-2p0p2p0-2h3-3-3p00--2p0p2p0-2h3-3-3-3-3p00--||-2p0p2p0-2h3-3-3p00--2p0p2p0-2h3-3-3-3-3p00--|
|---------------------------------------------||---------------------------------------------||---------------------------------------------||-----------------------------------------55--||-2p0p2p0-2h3-3-3p00--2p0p2p0-2h3-3-3-3-3-----||-2p0p2p0-2h3-3-3p00--2p0p2p0-2h3-3-3-3-3-33--|
|---------------------------------------------||---------------------------------------------||---------------------------------------------||---------------------------------------------||-2p0p2p0-2h3-3-3p00--2p0p2p0-2h3-3-3-3-3p00--||-2p0p2p0-2h3-3-3p00--2p0p2p0-2h3-3-3-3-3p00--|
|---------------------------------------------||---------------------------------------------||---------------------------------------------||---------------------------------------------||-2p0p2p0-2h3-3-3p00--2p0p2p0-2h3-3-3-3-3p000-||-2p0p2p0-2h3-3-3p00--2p0p2p0-2h3-3-3-3-3p000-|
|------------------------------------------------------||-7----------------------------------------------------||-6\---131313/111111--------8~/9~-------6/8~-4/6-------||------------------------------------------------------||------111111/-9-9-9--8p7~--6~/7~--2/4~-4/6~-2/4~-2p0--||------------------------------------------------------|
|---------------------------------------------------------------||---------------------------------------------------------------||-/7-------/7------/7-/7---/7--------0-----0------0-0---0-------||-/7-------/7------/7-/7---/7--------0-----0------0-0---0-------||-/5-------/5------/5-/5---/5--------0-----0------0-0---0-------||----0-0-0----0-0-0------0----0-0-0---0-0-0--0-0-0----0---0-0-0-|
|---------------------------------------------------------------||---------------------------------------------------------------||-/7------/7-------0-0--/7--------0-----0-----0-0---0-----------||-/7------/7-------0-0--/7--------0-----0-----0-0---0-----------||-/5------/5-------0-0--/5--------0-----0-----0-0---0-----------||----0-0-0---0-0-0-----0---0-0-0---0-0-0--0-0-----0-0-0-0-0-----|
|-----------------------------<5>-------------------------------||-----------------------------<5>-------------------------------||---------------------------------------------------------------||------------------------------------------------------------3b-||-2-0-2-0-2h3-0-2-0-2-0-2h3-------2-0-2-0-2h3-0-2-0-2-0-2h3-----||-2-0-2-0-2h3-0-2-0-2-0-2h3-------2-0-2-0-2h3-0-2-0-2-0-2h3-----|
|---------------------------------------------||---------------------------------------------||---------------------------------------------||---------------------------------------------||-2p0p2p0-2h3-3-3p00--2p0p2p0-2h3-3-3-3-3p00--||-2p0p2p0-2h3-3-3p00--2p0p2p0-2h3-3-3-3-3p00--|
|---------------------------------------------||---------------------------------------------||---------------------------------------------||-----------------------------------------55--||-2p0p2p0-2h3-3-3p00--2p0p2p0-2h3-3-3-3-3-----||-2p0p2p0-2h3-3-3p00--2p0p2p0-2h3-3-3-3-3-33--|
|---------------------------------------------||-7-------------------------------------------||-6\--13/14-----------------------------------||------------6-/7------1/2------4/5/7~--------||-----11/12--4~/5~-5h6~1/2-6~7~-2/3/5~--------||---------------------------------------------|
|---------------------------------------------------------------||---------------------------------------------------<333>-<555>-||-/7-------/7------/7-/7---/7--------0-----0------0-<333>-<555>-||-/7-------/7------/7-/7---/7--------0-----0------0-<333>-<555>-||-/5-------/5------/5-/5---/5--------0-----0------0-------------||----0-0-0----0-0-0------0----0-0-0---0-0-0--0-0-0--------------|
|---------------------------------------------------------------||---------------------------------------------------------------||-/7-------/7------/7-/7---/7--------0-----0------0-0---0-------||-/7-------/7------/7-/7---/7--------0-----0------0-0---0-------||-/5-------/5------/5-/5---/5--------0-----0------0-0---0-------||----0-0-0----0-0-0------0----0-0-0---0-0-0--0-0-0----0---0-0-0-|
|-----------------------------------------------------------------------------------||-----------5h7p5----------------5h7p5---------------5h7p5---------------5h7p5------||------5h7p5-----5h7p5------5h7p5-----5h7p5-----5h7p5-----5h7p5-----5h7p5-----5h7p5-||-5h7p5----------------5h7p5---------------5h7p5---------------5h7p5----------------||-----------------------------------------------------------------------------------||-----------------------------------------------------------------------------------|
|-----------------------------------------------------------------------------------||-----------6h8p6---------------6h8p6---------------6h8p6---------------6h8p6-------||------6h8p6-----6h8p6-----6h8p6-----6h8p6-----6h8p6-----6h8p6-----6h8p6-----6h8p6--||-6h8p6---------------6h8p6---------------6h8p6---------------6h8p6-----------------||-----------------------------------------------------------------------------------||-----------------------------------------------------------------------------------|
|-----------------------------------------------------------------------------------||-----------5h7p5----------------5h7p5---------------5h7p5---------------5h7p5------||------5h7p5-----5h7p5------5h7p5-----5h7p5-----5h7p5-----5h7p5-----5h7p5-----5h7p5-||-5h7p5----------------5h7p5---------------5h7p5---------------5h7p5----------------||-----------------------------------------------------------------------------------||-----------------------------------------------------------------------------------|
|--888--777--666--||--888--777--666--||--555--555--555--||-----------------||-----------------||-----------------|
|-----------------------------------------------------------||-----------------------------------------------------------||-----------------------------------------------------------||-----------------------------------------------------------||-2-2-2-0-2h3-0-2-0-2-0-2h3p20--2-0-2-0-2h3~-0-2-0-2-0-2h3--||-2-2-2-0-2h3-0-2-0-2-0-2h3p20--2-0-2-0-2h3~-0-2-0-2-0-2h3--|
Yeeeeeaaaahhhhhhooooaa|-------------------------------------------------------------||-------------------------------------------------------------||-------------------------------------------------------------||-------------------------------------------------------------||-2-2-2-0-2h3-0-2-0-2-0-2h3p20--2-0-2-0-2h3~-0-2-0-2-0-2h3----||-2-2-2-0-2h3-0-2-0-2-0-2h3p20--2-0-2-0-2h3~-0-2-0-2-0-2h3----|
|---------------------------<5>-------------------------------||---------------------------<5>-------------------------------||-------------------------------------------------------------||---------------------------------------------------------3b--||-2-0-2-0-2h3-0-2-0-2-0-2h3-----2-0-2-0-2h3-0-2-0-2-0-2h3-----||-2-0-2-0-2h3-0-2-0-2-0-2h3-----2-0-2-0-2h3-0-2-0-2-0-2h3-----|
|----------------------------------------------||----------------------------------------------||----------------------------------------------||----------------------------------------------||----------------------------------------------||-2p0p2p0-2h3-3-3p00--2p0p2p0-2h3-3-3-3-3p000--||-2p0p2p0-2h3-3-3p00--2p0p2p0-2h3-3-3-3-3p000--|
Ended|------------------------------------------||------------------------------------------||------------------------------------------||------------------------------------------||------------------------------------------||-2p0p2p0-2h3-3-3p00--2p0p2p0-2h3-3-3-3-3--||-2p0p2p0-2h3-3-3p00--2p0p2p0-2h3-3-3-3-3--|
Please don't edit this tab without asking first please rate and leave a comment ;) e-mail me with any questions ************************************ | / slide up | \ slide down | h hammer-on | p pull-off | ~ vibrato | + harmonic | x Mute note | b Bend | pb Pre-bend | br Bend release | pbr Pre-bend release | brb Bend release bend ************************************
Please rate this tab:
x1.0