Silverstein - A Hero Loses Everyday tab

Title: A Hero Loses Everyday
Artist: Silverstein
Album: A Shipwreck In The Sand
Words: Silverstein
Music: Silverstein

Legend
L - tied note
x - dead note
h - hammer on/pull off
b - bend
s - slide
~ - vibrato
g - ghost note
> - accentuated note
t - trill
M - palm mute
. - staccato
P - popping (bass)
S - slapping (bass)
+ - tapping
W - wide vibrato
< - fade in
w - whammy bar
= - tremolo picking
v - brush up
^ - brush down
V - pick stroke up
n - pick stroke down


D#||---------------------|----------------------|----------------------|A#||---------------------|----------------------|----------------------|F#||o--------------------|--5--5.----5--5.------|----------------------|C#||o--------------------|--x--x-----x--x-------|--5--5.----5--5.------|G#||-2--2.----2--2.------|--3--3.----3--3.------|--2--2.----2--2.------|C#||-2--2.----2--2.------|--3--3.----3--3.------|--2--2.----2--2.------|
---------------------|||---------------------|----------------------|---------------------|||---------------------|----------------------|--------------------o|||o--------------------|--5--5.----5--5.------|--3--3.----3--3--3--o|||o--------------------|--x--x-----x--x-------|--3--3.----3--3--3---|||-2--2.----2--2.------|--3--3.----3--3.------|--3--3.----3--3--3---|||-2--2.----2--2.------|--3--3.----3--3.------|
----------------------|---------------------|||----------------------|---------------------|||----------------------|--------------------o|||--5--5.----5--5.------|--3--3.----3--3--3--o|||--2--2.----2--2.------|--3--3.----3--3--3---|||--2--2.----2--2.------|--3--3.----3--3--3---|||
---------------------------------------------------|---------------------------------------------------|o------------------5L----------------------5-------|o------------------3L----------------------3-------|-3M-3M-3M-3M-3M-3M-3L----------------------3-------|-3M-3M-3M-3M-3M-3M-3L----------------------3-------|
----------------------------|----------------------------|--5--------4----------------|--------------------5-------|----------------------------|----------------------------|
----------------------------------------------------|----------------------------------------------------|----------------------------------------------------|--------------------7L----------------------7-------|--7M-7M-7M-7M-7M-7M-7L----------------------7-------|--7M-7M-7M-7M-7M-7M-7L----------------------7-------|
----------------------------|----------------------------|----------------------------|----------------------------|--10s------9----------------|-----------4--4.----5--5----|--------------------10------|-----------x--x-----x--x----|----------------------------|--2--2.----2--2.----3--3----|----------------------------|--2--2.----2--2.----3--3----|
----------------------------|----------------------------|----------------------------|----------------------------|-----5.----4--5--4--0-------|----------------------------|-----x-----------------5L---|--5--5--5-----5--5--5--5L---|-----3.----------------5L---|--5--5--5-----5--5--5--5L---|-----3.----------------5L---|--5--5--5-----5--5--5--5L---|
---------------------------|||---------------------|----------------------|---------------------------|||---------------------|----------------------|--------------------------o|||o--------------------|--5--5.----5--5.------|--5--5--5-----5--5--5--5--o|||o--------------------|--x--x-----x--x-------|--5--5--5-----5--5--5--5---|||-2--2.----2--2.------|--3--3.----3--3.------|--5--5--5-----5--5--5--5---|||-2--2.----2--2.------|--3--3.----3--3.------|
----------------------|---------------------||----------------------|---------------------||----------------------|--------------------o||--5--5.----5--5.------|--3--3.----3--3--3--o||--2--2.----2--2.------|--3--3.----3--3--3---||--2--2.----2--2.------|--3--3.----3--3--3---||
----------------------------------------------------|----------------------------------------------------|--------------------5L----------------------5-------|--------------------3L----------------------3-------|--3M-3M-3M-3M-3M-3M-3L----------------------3-------|--3M-3M-3M-3M-3M-3M-3L----------------------3-------|
----------------------------|----------------------------|--5--------4----------------|--------------------5-------|----------------------------|----------------------------|
----------------------------------------------------|----------------------------------------------------|----------------------------------------------------|--------------------7L----------------------7-------|--7M-7M-7M-7M-7M-7M-7L----------------------7-------|--7M-7M-7M-7M-7M-7M-7L----------------------7-------|
----------------------------|----------------------------|----------------------------|----------------------------|--10s------9----------------|-----------4--4.----5--5----|--------------------10------|-----------x--x-----x--x----|----------------------------|--2--2.----2--2.----3--3----|----------------------------|--2--2.----2--2.----3--3----|
----------------------------|----------------------------|----------------------------|----------------------------|-----5.----4--5--4--0-------|----------------------------|-----x-----------------5L---|--5--5--5-----5--5--5--5L---|-----3.----------------5L---|--5--5--5-----5--5--5--5L---|-----3.----------------5L---|--5--5--5-----5--5--5--5L---|
----------------------------||---------------------------|----------------------------||---------------------------|----------------------------||o12-12---------------------|--5--5--5-----5--5--5--5----||o------9--9--10-10-12-12---|--5--5--5-----5--5--5--5----||---------------------------|--5--5--5-----5--5--5--5----||---------------------------|
----------------------------|----------------------------|----------------------------|----------------------------|-----------------------12L--|--12-12---------------------|--10-10-9--9--10-12-12------|--------9--9--10-10-12-12---|----------------------------|----------------------------|----------------------------|----------------------------|
---------------------------||--3M-------3M-------3M------|---------------------------||-----3M-------3M-------3M---|--------------------------o||--------5M-------5M---------|--10-10-9--9--10-9--------o||----------------------------|--------------------10-10--||----------------------------|---------------------------||----------------------------|
-----3M-------3M-------3M---|--0M-------0M-------0M------|--------3M-------3M---------|-----0M-------0M-------0M---|--5M-------5M-------5M------|--------5M-------5M---------|----------------------------|----------------------------|----------------------------|----------------------------|----------------------------|----------------------------|
-----0M-------0M-------0M---|--3M-------3M-------3M------|--------0M-------0M---------|-----3M-------3M-------3M---|--5M-------5M-------5M------|--------5M-------5M---------|----------------------------|----------------------------|----------------------------|----------------------------|----------------------------|----------------------------|
-----3M-------3M-------3M---|--0M-------0M-------0M------|--------3M-------3M---------|-----0M-------0M-------0M---|--5M-------5M-------5M------|--------5M-------5M---------|----------------------------|----------------------------|----------------------------|----------------------------|----------------------------|----------------------------|
-----0M-------0M-------0M---|--3M-------3M-------3M------|--------0M-------0M---------|-----3M-------3M-------3M---|--5M-------5M-------5M------|--------5M-------5M---------|----------------------------|----------------------------|----------------------------|----------------------------|----------------------------|----------------------------|
-----3M-------3M-------3M---|--0M-------0M-------0M------|--------3M-------3M---------|-----0M-------0M-------0M---|--5M-------5M-------5M------|--------5M-------5M---------|----------------------------|----------------------------|----------------------------|----------------------------|----------------------------|----------------------------|
-----0M-------0M-------0M---|--3M-------3M-------3M------|--------0M-------0M---------|-----3M-------3M-------3M---|--5M-------5M-------5M------|--------5M-------5M---------|----------------------------|----------------------------|----------------------------|----------------------------|----------------------------|----------------------------|
-----3M-------3M-------3M---|--0M-------0M-------0M------|--------3M-------3M---------|-----0M-------0M-------0M---|--5M-------5M-------5M------|--------5M-------5M---------|----------------------------|----------------------------|----------------------------|----------------------------|----------------------------|----------------------------|
-----0M-------0M-------0M---|--3--------3--------3-------|--------0M-------0M---------|-----3--------3--------3----|--5M-------5M-------5M------|--------5--------5----------|----------------------------|----------------------------|----------------------------|----------------------------|----------------------------|----------------------------|
-----3--------3--------3----|--0--------0--------0-------|--------3--------3----------|-----0--------0--------0----|--5--------5--------5-------|--------5--------5----------|----------------------------|----------------------------|----------------------------|----------------------------|----------------------------|----------------------------|
-----0--------0--------0----|--3--------3--------3-------|--------0--------0----------|-----3--------3--------3----|--5--------5--------5-------|--------5--------5----------|----------------------------|----------------------------|----------------------------|----------------------------|----------------------------|----------------------------|
-----3--------3--------3----|--0--------0--------0-------|--------3--------3----------|-----0--------0--------0----|--5--------5--------5-------|--------5--------5----------|----------------------------|----------------------------|----------------------------|----------------------------|----------------------------|----------------------------|
-----0--------0--------0----|--3M----------------3-------|--------0--------0----------|-----3M----3M-3--------3----|--5--------5--------5-------|--------5M-------5----------|----------------------------|----------------------------|----------------------------|----------------------------|----------------------------|----------------------------|
-----3--------3--------3----|--0--------0--------0-------|--------3--------3----------|-----0--------0--------0----|--5--------5--------5-------|--------5--------5----------|----------------------------|----------------------------|----------------------------|----------------------------|----------------------------|----------------------------|
-----0--------0--------0----|--3--------3--------3-------|--------0--------0----------|-----3--------3--------3----|--5--------5--------5-------|--------5--------5----------|----------------------------|----------------------------|----------------------------|----------------------------|----------------------------|----------------------------|
-----3--------3--------3----|--0--------0--------0-------|--------3--------3----------|-----0--------0--------0----|--5--------5--------5-------|--------5--------5----------|----------------------------|----------------------------|----------------------------|----------------------------|----------------------------|----------------------------|
-----0--------0--------0----|--------0--------0----------|--5--------5--------5-------|----------------------------|----------------------------|----------------------------|
----------------------------------------------------|----------------------------------------------------|--------------------5L----------------------5-------|--------------------3L----------------------3-------|--3M-3M-3M-3M-3M-3M-3L----------------------3-------|--3M-3M-3M-3M-3M-3M-3L----------------------3-------|
----------------------------|----------------------------|--5--------4----------------|--------------------5-------|----------------------------|----------------------------|
----------------------------------------------------|----------------------------------------------------|----------------------------------------------------|--------------------7L----------------------7-------|--7M-7M-7M-7M-7M-7M-7L----------------------7-------|--7M-7M-7M-7M-7M-7M-7L----------------------7-------|
----------------------------|----------------------------|----------------------------|----------------------------|--10s------9----------------|-----------4--4.----5--5----|--------------------10------|-----------x--x-----x--x----|----------------------------|--2--2.----2--2.----3--3----|----------------------------|--2--2.----2--2.----3--3----|
----------------------------|-------|-------||---------------------------|----------------------------|-------|-------||---------------------------|-----5.----4--5--4--0-------|-------|-------||o12-12---------------------|-----x-----------------5L---|--5L---|--5----||o------9--9--10-10-12-12---|-----3.----------------5L---|--5L---|--5----||---------------------------|-----3.----------------5L---|--5L---|--5----||---------------------------|
----------------------------|----------------------------|----------------------------|----------------------------|-----------------------12L--|--12-12---------------------|--10-10-9--9--10-12-12------|--------9--9--10-10-12-12---|----------------------------|----------------------------|----------------------------|----------------------------|
---------------------------|||---------------------|----------------------|---------------------------|||---------------------|----------------------|--------------------------o|||o--------------------|--5--5.----5--5.------|--10-10-9--9--10-9--------o|||o--------------------|--x--x-----x--x-------|--------------------10-10--|||-2--2.----2--2.------|--3--3.----3--3.------|---------------------------|||-2--2.----2--2.------|--3--3.----3--3.------|
----------------------|---------------------||--3M-------3M---------|----------------------|---------------------||-----3M-------3M------|----------------------|--------------------o||--------5M-------5M---|--5--5.----5--5.------|--3--3.----3--3--3--o||----------------------|--2--2.----2--2.------|--3--3.----3--3--3---||----------------------|--2--2.----2--2.------|--3--3.----3--3--3---||----------------------|
--0M-------0M---------|--3M-------3M---------|--0M-------0M---------|-----0M-------0M------|-----3M-------3M------|-----0M-------0M------|--------5M-------5M---|--------5M-------5M---|--------5M-------5M---|----------------------|----------------------|----------------------|----------------------|----------------------|----------------------|----------------------|----------------------|----------------------|
--3M-------3M---------|--0M-------0M---------|--3M-------3M---------|-----3M-------3M------|-----0M-------0M------|-----3M-------3M------|--------5M-------5M---|--------5M-------5M---|--------5M-------5M---|----------------------|----------------------|----------------------|----------------------|----------------------|----------------------|----------------------|----------------------|----------------------|
--0M-------0M---------|----------------------||-----0M-------0M------|----------------------||--------5M-------5M---|----------------------||----------------------|----------------------||----------------------|----------------------||----------------------|----------------------||
Tap to rate this tab
 
# A B C D E F G H I J K L M N O P Q R S T U V W X Y Z