Silverstein – Defend You tab

Artist:SilversteinSong:Defend YouCD:Discovering the Waterfront(2005)Tabbed by:fret13@columbus.rr.comTuning:Standard|--||--||--||--||--||--|
Guitar 1Intro|--------------------||---8-7-8-----8-7-8--||---9-9-9-----9-9-9--||---9-9-9-----9-9-9--||-7-------7-7--------||-0-------0-0--------| . . .
Verse 1|-------------------||---8-7-8-----8-7-8-||---9-9-9-----9-9-9-||---9-9-9-----9-9-9-||-7-------7-7-------||-0-------0-0-------| . . .
|-------------------------------------------------------------------------||-------------------------------------------------------------------------||--9--9--9--9--9--9--9--9-9-9-9-9-9-9-9-9-9-9-9-9-9-9-9-9-9-9-9-9-9-9-9-9-||-10-10-10-10-10-10-10-10-9-9-9-9-9-9-9-9-8-8-8-8-8-8-8-8-7-7-7-7-7-7-7-7-||--7--7--7--7--7--7--7--7-7-7-7-7-7-7-7-7-7-7-7-7-7-7-7-7-7-7-7-7-7-7-7-7-||--8--8--8--8--8--8--8--8-8-8-8-8-8-8-8-8-8-8-8-8-8-8-8-8-7-7-7-7-7-7-7-7-|
|---7-7-7-----7-7-7---7-7-7-----7-7-7-||---8-7-8-----8-7-8---8-7-8-----8-7-8-||---9-9-9-----9-9-9---9-9-9-----9-9-9-||---9-9-9-----9-9-9---9-9-9-----9-9-9-||-7-------7-7-------7-------7-7-------||-0-------0-0-------0-------0-0-------| . . . . . .
|----------------------------------------------------||-------------------------10-10-10-10-10-10----------||--9--9--9--9--9--9--9--9--x--x--x--x--x--x-11-12-14-||-10-10-10-10-10-10-10-10--9--9--9--9--9--9--x--x--x-||--7--7--7--7--7--7--7--7--------------------9-10-12-||----------------------------------------------------|
|---7-7-7-----7-7-7---7-7-7-----7-7-7-||---8-7-8-----8-7-8---8-7-8-----8-7-8-||---9-9-9-----9-9-9---9-9-9-----9-9-9-||---9-9-9-----9-9-9---9-9-9-----9-9-9-||-7-------7-7-------7-------7-7-------||-0-------0-0-------0-------0-0-------| . . . . . .
|-------------------------------||----8-7------8-7------8-7------||--9~-------9~-------9~-------9-||-10~----10-9~----10-8~----10-7-||--7~-------7~-------7~-------7-||-----------------------------7-|
|---7-7-7-----7-7-7---7-7-7-----7-7-7-||---8-7-8-----8-7-8---8-7-8-----8-7-8-||---9-9-9-----9-9-9---9-9-9-----9-9-9-||---9-9-9-----9-9-9---9-9-9-----9-9-9-||-7-------7-7-------7-------7-7-------||-0-------0-0-------0-------0-0-------| . . . . . .
|-------------------------------------------------||-------------------------10-10-10-10-10-10-10-10-||--9--9--9--9--9--9--9--9--x--x--x--x--x--x--x--x-||-10-10-10-10-10-10-10-10--9--9--9--9--9--9--9--9-||--7--7--7--7--7--7--7--7-------------------------||-------------------------------------------------|
|-----------------------------||-----------------------------||-----------------------------||-----------------------------||-2-2-5-5-4-4-5-7-7-7-7-7-7-7-||-0-0-3-3-2-2-3-5-5-5-5-5-5-5-| . . . . . . . . . . . . . .
Chorus|-----------------------------------------------------------------||-------------------------------------------------8-8-8-8-7-7-7-7-||--9--9--9--9--9--9--9--9--9--9--9--9--9--9--9--9-9-9-9-9-9-9-9-9-||-10-10-10-10-10-10-10-10-10-10-10-10-10-10-10-10-----------------||--7--7--7--7--7--7--7--7--7--7--7--7--7--7--7--7-----------------||-----------------------------------------------------------------|
|-------------------------------------------------||-------------------------------------------------||--9--9--9--9--9--9--9--9--9--9--9--9--9--9--9--9-||-10-10-10-10-10-10-10-10-10-10-10-10-10-10-10-10-||--7--7--7--7--7--7--7--7--7--7--7--7--7--7--7--7-||-------------------------------------------------|
|-------------------------||-7h8-7-5-7-7-7-7-7-7-7-7-||---------8-8-8-8-8-8-8-8-||---------9-9-9-9-9-9-9-9-||-------------------------||-------------------------|
|-----------------------------------------------------------------||-------------------------------------------------8-8-8-8-7-7-7-7-||--9--9--9--9--9--9--9--9--9--9--9--9--9--9--9--9-9-9-9-9-9-9-9-9-||-10-10-10-10-10-10-10-10-10-10-10-10-10-10-10-10-----------------||--7--7--7--7--7--7--7--7--7--7--7--7--7--7--7--7-----------------||-----------------------------------------------------------------|
|-----------------------------------||-----------------------------------||--9--9--9--9--9--9-----------------||-10-10-10-10-10-10-5-5-5-5-5-5-5-5-||--7--7--7--7--7--7-5-5-5-5-5-5-5-5-||-------------------3-3-3-3-3-3-3-3-|
|-----------------------------------------||-----------------------------------------||-----------------------------------------||-----7-----7-----7-----7-----------------||-7-7-7-7-7-7-7-7-7-7-7-7-7-7-7-7-7-7-7-7-||-5-5-5-5-5-5-5-5-5-5-5-5-5-5-5-5-5-5-5-5-| . . . . . . . . . . . . . . . .
|---------------------------------||---------------------------------||---------------------------------||-9h10p9--------------------------||--------10-9-7-9-7-5-3-2-0-2-0---||-------------------------------3-| . . . . . . . . . . .
Verse 2|---7-7-7-----7-7-7---7-7-7-----7-7-7-||---8-7-8-----8-7-8---8-7-8-----8-7-8-||---9-9-9-----9-9-9---9-9-9-----9-9-9-||---9-9-9-----9-9-9---9-9-9-----9-9-9-||-7-------7-7-------7-------7-7-------||-0-------0-0-------0-------0-0-------| . . . . . .
|-------------------------------||----8-7------8-7------8-7------||--9~-------9~-------9~-------9-||-10~----10-9~----10-8~----10-7-||--7~-------7~-------7~-------7-||-----------------------------7-|
|---7-7-7-----7-7-7---7-7-7-----7-7-7-||---8-7-8-----8-7-8---8-7-8-----8-7-8-||---9-9-9-----9-9-9---9-9-9-----9-9-9-||---9-9-9-----9-9-9---9-9-9-----9-9-9-||-7-------7-7-------7-------7-7-------||-0-------0-0-------0-------0-0-------| . . . . . .
|----------------------------------------------------||-------------------------10-10-10-10-10-10-10-10-10-||--9--9--9--9--9--9--9--9--x--x--x--x--x--x--x--x--x-||-10-10-10-10-10-10-10-10--9--9--9--9--9--9--9--9--9-||--7--7--7--7--7--7--7--7----------------------------||----------------------------------------------------|
Chorus|-----------------------------------------------------------------||-------------------------------------------------8-8-8-8-7-7-7-7-||--9--9--9--9--9--9--9--9--9--9--9--9--9--9--9--9-9-9-9-9-9-9-9-9-||-10-10-10-10-10-10-10-10-10-10-10-10-10-10-10-10-----------------||--7--7--7--7--7--7--7--7--7--7--7--7--7--7--7--7-----------------||-----------------------------------------------------------------|
|-------------------------------------------------||-------------------------------------------------||--9--9--9--9--9--9--9--9--9--9--9--9--9--9--9--9-||-10-10-10-10-10-10-10-10-10-10-10-10-10-10-10-10-||--7--7--7--7--7--7--7--7--7--7--7--7--7--7--7--7-||-------------------------------------------------|
|-------------------------||-7h8-7-5-7-7-7-7-7-7-7-7-||---------8-8-8-8-8-8-8-8-||---------9-9-9-9-9-9-9-9-||-------------------------||-------------------------|
|-----------------------------------------------------------------||-------------------------------------------------8-8-8-8-7-7-7-7-||--9--9--9--9--9--9--9--9--9--9--9--9--9--9--9--9-9-9-9-9-9-9-9-9-||-10-10-10-10-10-10-10-10-10-10-10-10-10-10-10-10-----------------||--7--7--7--7--7--7--7--7--7--7--7--7--7--7--7--7-----------------||-----------------------------------------------------------------|
|-----------------------------------||-----------------------------------||--9--9--9--9--9--9-----------------||-10-10-10-10-10-10-5-5-5-5-5-5-5-5-||--7--7--7--7--7--7-5-5-5-5-5-5-5-5-||-------------------3-3-3-3-3-3-3-3-|
|-------------------------------------------------||-------------------------------------------------||-------------------------------------------------||-----7-----7-----7-----7-----5-----5-----4-----4-||-7-7-7-7-7-7-7-7-7-7-7-7-5-5-5-5-5-5-4-4-4-4-4-4-||-5-5-5-5-5-5-5-5-5-5-5-5-3-3-3-3-3-3-2-2-2-2-2-2-| . . . . . . . . . . . . . . . .
Breakdown|---------------------------------------------|x4|---------------------------------------------||------0------0-----0-------------------------||-----------9-----7---------9-----------12----||---10---10-----9--------10---10-----10----10-||-12------------------12----------12----------|
|-------------------------------------------|x2|-------------------------------------------||------------0------------0-----------------||----9------------------9-----------------9-||-10---10------------10-----10---------10---||---------12---12-12-----------8--7--8------|
|-p-------s---------||---i-------l-------||-----c-------i-----||-------k-------d---||-----------------e-||-------------------|
Solo|-----------------------------------------------------------||-----------------------------------------------------------||-----------------------------------------------------------||----10-9-7-9-10-12-12----------7--------12-10-9-7-9-10-9-7-||------------------------10-9-7---10-9-7--------------------||-12-------------------8------------------------------------|
|----------------------------------------------------------||----------------------------------------------------------||----------------------------------------------------------||----------7--------/14-/14-/14-12-10-9-12-10-9-7-9-10-9-7-||---10-9-7---10-9-7----------------------------------------||-8--------------------------------------------------------|
|----------------------------------------------||----------------------------------------------||---------------------9-9-12-12-11-11-14-14-16-||---------------------x-x--x--x--x--x--x--x--x-||-7-10-9-7-9-10-12-12-7-7-10-10--9--9-12-12-14-||----------------------------------------------|
|-----------------------------------------------------------------||-------------------------------------------------8-8-8-8-7-7-7-7-||--9--9--9--9--9--9--9--9--9--9--9--9--9--9--9--9-9-9-9-9-9-9-9-9-||-10-10-10-10-10-10-10-10-10-10-10-10-10-10-10-10-----------------||--7--7--7--7--7--7--7--7--7--7--7--7--7--7--7--7-----------------||-----------------------------------------------------------------|
|-------------------------------------------------||-------------------------------------------------||--9--9--9--9--9--9--9--9--9--9--9--9--9--9--9--9-||-10-10-10-10-10-10-10-10-10-10-10-10-10-10-10-10-||--7--7--7--7--7--7--7--7--7--7--7--7--7--7--7--7-||-------------------------------------------------|
|-------------------------||-7h8-7-5-7-7-7-7-7-7-7-7-||---------8-8-8-8-8-8-8-8-||---------9-9-9-9-9-9-9-9-||-------------------------||-------------------------|
|-----------------------------------------------------------------||-------------------------------------------------8-8-8-8-7-7-7-7-||--9--9--9--9--9--9--9--9--9--9--9--9--9--9--9--9-9-9-9-9-9-9-9-9-||-10-10-10-10-10-10-10-10-10-10-10-10-10-10-10-10-----------------||--7--7--7--7--7--7--7--7--7--7--7--7--7--7--7--7-----------------||-----------------------------------------------------------------|
|---------------------------------------------------||---------------------------------------------------||--9--9--9--9--9--9---------------------------------||-10-10-10-10-10-10-5-5-5-5-5-5-5-5-7-7-7-7-7-7-7-7-||--7--7--7--7--7--7-5-5-5-5-5-5-5-5-7-7-7-7-7-7-7-7-||-------------------3-3-3-3-3-3-3-3-5-5-5-5-5-5-5-5-|
Last Chorus|-----------------------------------------------------------------||-------------------------------------------------8-8-8-8-7-7-7-7-||--9--9--9--9--9--9--9--9--9--9--9--9--9--9--9--9-9-9-9-9-9-9-9-9-||-10-10-10-10-10-10-10-10-10-10-10-10-10-10-10-10-----------------||--7--7--7--7--7--7--7--7--7--7--7--7--7--7--7--7-----------------||-----------------------------------------------------------------|
|-------------------------------------------------||-------------------------------------------------||--9--9--9--9--9--9--9--9--9--9--9--9--9--9--9--9-||-10-10-10-10-10-10-10-10-10-10-10-10-10-10-10-10-||--7--7--7--7--7--7--7--7--7--7--7--7--7--7--7--7-||-------------------------------------------------|
|------------9-9-9-9-9-9-9-9-9-9-9-9-9-9-9-9-||--------------------------------------------||-11-12-11-9---------------------------------||--x--x--x-x---------------------------------||--9-10--9-7---------------------------------||--------------------------------------------|
|-----------------------------------------------------------------||-------------------------------------------------8-8-8-8-7-7-7-7-||--9--9--9--9--9--9--9--9--9--9--9--9--9--9--9--9-9-9-9-9-9-9-9-9-||-10-10-10-10-10-10-10-10-10-10-10-10-10-10-10-10-----------------||--7--7--7--7--7--7--7--7--7--7--7--7--7--7--7--7-----------------||-----------------------------------------------------------------|
|-----------------------------------||-----------------------------------||--9--9--9--9--9--9-----------------||-10-10-10-10-10-10-5-5-5-5-5-5-5-5-||--7--7--7--7--7--7-5-5-5-5-5-5-5-5-||-------------------3-3-3-3-3-3-3-3-|
|-----------------------------------------||-----------------------------------------||-----------------------------------------||-----7-----7-----7-----7-----------------||-7-7-7-7-7-7-7-7-7-7-7-7-7-7-7-7-7-7-7-7-||-5-5-5-5-5-5-5-5-5-5-5-5-5-5-5-5-5-5-5-5-| . . . . . . . . . . . . . . . .
|---------------------------------||---------------------------------||---------------------------------||-9h10p9--------------------------||--------10-9-7-9-7-5-3-2-0-2-0---||-------------------------------3-| . . . . . . . . . . .
|---------7-||---8-7-8-8-||---9-9-9-9-||---9-9-9-9-||-7-------7-||-0-------0-| .
======================================================================== Guitar 2 Intro - Feedback from Discovering the Waterfront
Verse|-------------------||---7-7-8-----7-7-8-||---9-9-9-----9-9-9-||---9-9-9-----9-9-9-||-7-------7-7-------||-0-------0-0-------| . . .
|-------------------------------------------------------------------------||-------------------------------------------------------------------------||--9--9--9--9--9--9--9--9-9-9-9-9-9-9-9-9-9-9-9-9-9-9-9-9-9-9-9-9-9-9-9-9-||-10-10-10-10-10-10-10-10-9-9-9-9-9-9-9-9-8-8-8-8-8-8-8-8-7-7-7-7-7-7-7-7-||--7--7--7--7--7--7--7--7-7-7-7-7-7-7-7-7-7-7-7-7-7-7-7-7-7-7-7-7-7-7-7-7-||--8--8--8--8--8--8--8--8-8-8-8-8-8-8-8-8-8-8-8-8-8-8-8-8-7-7-7-7-7-7-7-7-|
|---7-7-7-----7-7-7---7-7-7-----7-7-7-||---7-7-8-----7-7-8---7-7-8-----7-7-8-||---9-9-9-----9-9-9---9-9-9-----9-9-9-||---9-9-9-----9-9-9---9-9-9-----9-9-9-||-7-------7-7-------7-------7-7-------||-0-------0-0-------0-------0-0-------| . . . . . .
|---------------------------------------------------||-------------------------10-10-10-10-10-10---------||--9--9--9--9--9--9--9--9--x--x--x--x--x--x-9-11-12-||-10-10-10-10-10-10-10-10--9--9--9--9--9--9-x--x--x-||--7--7--7--7--7--7--7--7-------------------7--9-10-||---------------------------------------------------|
|---7-7-7-----7-7-7---7-7-7-----7-7-7-||---7-7-8-----7-7-8---7-7-8-----7-7-8-||---9-9-9-----9-9-9---9-9-9-----9-9-9-||---9-9-9-----9-9-9---9-9-9-----9-9-9-||-7-------7-7-------7-------7-7-------||-0-------0-0-------0-------0-0-------| . . . . . .
|-------------------------------------------------------------------------||-------------------------------------------------------------------------||--9--9--9--9--9--9--9--9-9-9-9-9-9-9-9-9-9-9-9-9-9-9-9-9-9-9-9-9-9-9-9-9-||-10-10-10-10-10-10-10-10-9-9-9-9-9-9-9-9-8-8-8-8-8-8-8-8-7-7-7-7-7-7-7-7-||--7--7--7--7--7--7--7--7-7-7-7-7-7-7-7-7-7-7-7-7-7-7-7-7-7-7-7-7-7-7-7-7-||--8--8--8--8--8--8--8--8-8-8-8-8-8-8-8-8-8-8-8-8-8-8-8-8-7-7-7-7-7-7-7-7-|
|---7-7-7-----7-7-7---7-7-7-----7-7-7-||---7-7-8-----7-7-8---7-7-8-----7-7-8-||---9-9-9-----9-9-9---9-9-9-----9-9-9-||---9-9-9-----9-9-9---9-9-9-----9-9-9-||-7-------7-7-------7-------7-7-------||-0-------0-0-------0-------0-0-------| . . . . . .
|-----------------------------------------||-----------------------------------------||--9--9--9--9--9--9--9--9-----------------||-10-10-10-10-10-10-10-10-5-5-5-5-5-5-5-5-||--7--7--7--7--7--7--7--7-5-5-5-5-5-5-5-5-||-------------------------3-3-3-3-3-3-3-3-|
Chorus|-----------------------------------------------------------------||-------------------------------------------------8-8-8-8-7-7-7-7-||--9--9--9--9--9--9--9--9--9--9--9--9--9--9--9--9-9-9-9-9-9-9-9-9-||-10-10-10-10-10-10-10-10-10-10-10-10-10-10-10-10-----------------||--7--7--7--7--7--7--7--7--7--7--7--7--7--7--7--7-----------------||-----------------------------------------------------------------|
|-------------------------------------------------||-------------------------------------------------||--9--9--9--9--9--9--9--9--9--9--9--9--9--9--9--9-||-10-10-10-10-10-10-10-10-10-10-10-10-10-10-10-10-||--7--7--7--7--7--7--7--7--7--7--7--7--7--7--7--7-||-------------------------------------------------|
|----------------------------||----------------------------||-11-12-11-9-----------------||--x--x--x-x-9-9-9-9-9-9-9-9-||--9-10--9-7-x-x-x-x-x-x-x-x-||------------7-7-7-7-7-7-7-7-|
|-----------------------------------------------------------------||-------------------------------------------------8-8-8-8-7-7-7-7-||--9--9--9--9--9--9--9--9--9--9--9--9--9--9--9--9-9-9-9-9-9-9-9-9-||-10-10-10-10-10-10-10-10-10-10-10-10-10-10-10-10-----------------||--7--7--7--7--7--7--7--7--7--7--7--7--7--7--7--7-----------------||-----------------------------------------------------------------|
|-----------------------------------||-----------------------------------||--9--9--9--9--9--9-----------------||-10-10-10-10-10-10-5-5-5-5-5-5-5-5-||--7--7--7--7--7--7-5-5-5-5-5-5-5-5-||-------------------3-3-3-3-3-3-3-3-|
|-----------------------------------------||-----------------------------------------||-----------------------------------------||-----7-----7-----7-----7-----------------||-7-7-7-7-7-7-7-7-7-7-7-7-7-7-7-7-7-7-7-7-||-5-5-5-5-5-5-5-5-5-5-5-5-5-5-5-5-5-5-5-5-| . . . . . . . . . . . . . . . .
Verse 2|-------------------||---7-7-8-----7-7-8-||---9-9-9-----9-9-9-||---9-9-9-----9-9-9-||-7-------7-7-------||-0-------0-0-------| . . .
|-------------------------------------------------------------------------||-------------------------------------------------------------------------||--9--9--9--9--9--9--9--9-9-9-9-9-9-9-9-9-9-9-9-9-9-9-9-9-9-9-9-9-9-9-9-9-||-10-10-10-10-10-10-10-10-9-9-9-9-9-9-9-9-8-8-8-8-8-8-8-8-7-7-7-7-7-7-7-7-||--7--7--7--7--7--7--7--7-7-7-7-7-7-7-7-7-7-7-7-7-7-7-7-7-7-7-7-7-7-7-7-7-||--8--8--8--8--8--8--8--8-8-8-8-8-8-8-8-8-8-8-8-8-8-8-8-8-7-7-7-7-7-7-7-7-|
|---7-7-7-----7-7-7---7-7-7-----7-7-7-||---7-7-8-----7-7-8---7-7-8-----7-7-8-||---9-9-9-----9-9-9---9-9-9-----9-9-9-||---9-9-9-----9-9-9---9-9-9-----9-9-9-||-7-------7-7-------7-------7-7-------||-0-------0-0-------0-------0-0-------| . . . . . .
|-----------------------------------------||-----------------------------------------||--9--9--9--9--9--9--9--9-----------------||-10-10-10-10-10-10-10-10-5-5-5-5-5-5-5-5-||--7--7--7--7--7--7--7--7-5-5-5-5-5-5-5-5-||-------------------------3-3-3-3-3-3-3-3-|
Chorus|-----------------------------------------------------------------||-------------------------------------------------8-8-8-8-7-7-7-7-||--9--9--9--9--9--9--9--9--9--9--9--9--9--9--9--9-9-9-9-9-9-9-9-9-||-10-10-10-10-10-10-10-10-10-10-10-10-10-10-10-10-----------------||--7--7--7--7--7--7--7--7--7--7--7--7--7--7--7--7-----------------||-----------------------------------------------------------------|
|-------------------------------------------------||-------------------------------------------------||--9--9--9--9--9--9--9--9--9--9--9--9--9--9--9--9-||-10-10-10-10-10-10-10-10-10-10-10-10-10-10-10-10-||--7--7--7--7--7--7--7--7--7--7--7--7--7--7--7--7-||-------------------------------------------------|
|------------------------------------||------------------------------------||-11-12-11-9-12-12-16-16-16-16-16-16-||--x--x--x-x--x--x--x--x--x--x--x--x-||--9-10--9-7-14-14-14-14-14-14-14-14-||------------------------------------|
|-----------------------------------------------------------------||-------------------------------------------------8-8-8-8-7-7-7-7-||--9--9--9--9--9--9--9--9--9--9--9--9--9--9--9--9-9-9-9-9-9-9-9-9-||-10-10-10-10-10-10-10-10-10-10-10-10-10-10-10-10-----------------||--7--7--7--7--7--7--7--7--7--7--7--7--7--7--7--7-----------------||-----------------------------------------------------------------|
|-----------------------------------||-----------------------------------||--9--9--9--9--9--9-----------------||-10-10-10-10-10-10-5-5-5-5-5-5-5-5-||--7--7--7--7--7--7-5-5-5-5-5-5-5-5-||-------------------3-3-3-3-3-3-3-3-|
|-------------------------------------------------------------||-------------------------------------------------------------||-------------------------------------------------------------||-----7-----7-----7-----7-------10-------10-------12-------12-||-7-7-7-7-7-7-7-7-7-7-7-7-10-10-10-10-10-10-12-12-12-12-12-12-||-5-5-5-5-5-5-5-5-5-5-5-5--8--8--8--8--8--8-10-10-10-10-10-10-| . . . . . . . . . . . . . . . .
Breakdown - while guitar 1 pick slides|-------------------------------------------------||-------------------------------------------------||-------------------------------------------------||-------------------------------------------------||-10-10-10-10-10-10-10-10-10-10-10-10-10-10-10-10-||--8--8--8--8--8--8--8--8--8--8--8--8--8--8--8--8-| . . . . . . . . . . . . . . . .
Solo|---------------------------------------------------------------------||---------------------------------------------------------------------||---------------------------------------------------------------------||-2-2-2-2-2-2-2-2-10-10-10-10-9-9-9-9---------------------------------||-2-2-2-2-2-2-2-2-10-10-10-10-9-9-9-9-2-2-2-2-2-2-2-2-2-2-2-2-2-2-2-2-||-0-0-0-0-0-0-0-0--8--8--8--8-7-7-7-7-0-0-0-0-0-0-0-0-0-0-0-0-0-0-0-0-| . . . . . . . . . . . . . . . .
|----------------------------------------------------------||----------------------------------------------------------||----------------------------------------------------------||-10-10-10-10-9-9-9-9-2-2-2-2-2-2-2-2-10-10--10-10-9-9--12-||-10-10-10-10-9-9-9-9-2-2-2-2-2-2-2-2-10-10--10-10-9-9--12-||--8--8--8--8-7-7-7-7-0-0-0-0-0-0-0-0--8--8---8--8-7-7--10-|
Chorus x2|-----------------------------------------------------------------||-------------------------------------------------8-8-8-8-7-7-7-7-||--9--9--9--9--9--9--9--9--9--9--9--9--9--9--9--9-9-9-9-9-9-9-9-9-||-10-10-10-10-10-10-10-10-10-10-10-10-10-10-10-10-----------------||--7--7--7--7--7--7--7--7--7--7--7--7--7--7--7--7-----------------||-----------------------------------------------------------------|
|-------------------------------------------------||-------------------------------------------------||--9--9--9--9--9--9--9--9--9--9--9--9--9--9--9--9-||-10-10-10-10-10-10-10-10-10-10-10-10-10-10-10-10-||--7--7--7--7--7--7--7--7--7--7--7--7--7--7--7--7-||-------------------------------------------------|
|----------------------------||----------------------------||-11-12-11-9-----------------||--x--x--x-x-9-9-9-9-9-9-9-9-||--9-10--9-7-x-x-x-x-x-x-x-x-||------------7-7-7-7-7-7-7-7-|
|-----------------------------------------------------------------||-------------------------------------------------8-8-8-8-7-7-7-7-||--9--9--9--9--9--9--9--9--9--9--9--9--9--9--9--9-9-9-9-9-9-9-9-9-||-10-10-10-10-10-10-10-10-10-10-10-10-10-10-10-10-----------------||--7--7--7--7--7--7--7--7--7--7--7--7--7--7--7--7-----------------||-----------------------------------------------------------------|
|-----------------------------------||-----------------------------------||--9--9--9--9--9--9-----------------||-10-10-10-10-10-10-5-5-5-5-5-5-5-5-||--7--7--7--7--7--7-5-5-5-5-5-5-5-5-||-------------------3-3-3-3-3-3-3-3-|
|-----------------------------------------||-----------------------------------------||-----------------------------------------||-----7-----7-----7-----7-----------------||-7-7-7-7-7-7-7-7-7-7-7-7-7-7-7-7-7-7-7-7-||-5-5-5-5-5-5-5-5-5-5-5-5-5-5-5-5-5-5-5-5-| . . . . . . . . . . . . . . . .
|---------7-||---7-7-8-8-||---9-9-9-9-||---9-9-9-9-||-7-------7-||-0-------0-| .There you go
Please rate this tab:
x1.0