Silvertide - California Rain tab

----------------------------------------------------------------------------
			     California Rain - Silvertide
----------------------------------------------------------------------------
Tabbed by: Rodrigomierh

Email:rodrigomierh@hotmail.com



All Guitars tuned ONE step down ( Eb Ab Db Gb Bb Eb )

Intro Riff|---------------------------------|-------------------------------||---------------------------------|-------------------------------||---------------------------------|-------------------------------||-------2-------------------------|-------2-----------------------||-0-2h4---2--2------2-3-3s5-5-3-2-|-0-2h4---2--2-5-4-2-0----------||--------------0-3----------------|----------------------0-2-0----|
Intro Solo|-------------------------------------------------------------NH.<12>~~-||-12b14r===10------10-12b14r====10--------------------------------------||---------------11------------------11-9--------------------------------||----------------------------------------9b11---9pb11-9pb11r==9---------||-----------------------------------------------------------------------||-----------------------------------------------------------------------|
|
|---------------------------|---------------------|-----12---10---9---7~||-10b12-10pb12r10----10-----|----10-10h12p10------|-7s9----9----9---9---||-----------------11----11--|--9-------------11p9~|---------------------||---------------------------|---------------------|---------------------||---------------------------|---------------------|---------------------||---------------------------|---------------------|---------------------|
intro Rhytm|---------------------------3-x--2-----2--------------------------------||--2-----x------------------3-x--3-----3------2-------x-----------------||--2-----x------------------0-x--2-----2------2-------x-----------------||--2-----x--4----4-----x----x-x---------------2-------x-----4--------4--||-----------2----2-----x----2-x-----------------------------2--------2--||---------------------------3-x-----------------------------------------|
|
|--3------------------------|--2------------------|---------------------||--3------------------------|--3------------------|---------------------||--0------------------------|--2------------------|---------------------||--x------------------------|---------------------|-2-2--2-2--2-2-2-2---||--2------------------------|---------------------|-2-2--2-2--2-2-2-2---||--3------------------------|---------------------|-0-0--0-0--0-0-0-0---|
Pre-verse|---------------------------------||---------------------------------||---------------------------------||-2---2-------2-4h5--2---2--------||-0---0-3-0-4-0-0----0---0-3-0-4--||---3------------------3----------|
verse ~||------------------------|-------------------------------------------|||------------------------|-------------------------------------------|||-----2--x-x-5-x-x-----7-|-x----x--------5-x-2-2---------------------|||--2--2--x-x-5-x-x-7---7-|-x----x--------5-x-2-2---------------------|||--0--0--x-x-3-x-x-5---5-|-x----x--------3-x-0-0--5--7-7-------------|||------------------------|------------------------3--5-5-0-3-0-4-0---|
Verse lead riff||------5--------|||---------------|||---------------|||-5b7----5pb7r5~|||---------------|||---------------|
Bridge|-------------------------------------------------||-------------------------------------------------||-------------------------------------------------||-4--------5--------7--7--x-x-5-x-7--7------------||-4--------5--------7--7--x-x-5-x-7--7------------||-2--------3--------5--5--x-x-3-x-5--5--0-3-0-4-0-|
Guitar 1
|-------------------------------------------------------------||-------------------------------------------------------------||-------------------------------------------------------------||-4-------------5--------------4-------------5----------------||-4-------------5--------------4-------------5----------------||-2-------------3--------------2-------------3----------------|
Guitar 2
|-------0--------------0-------------0--------------0---------||---------3--------3-----3-------------3--------3-----3-------||-----------2--------2-----2-------------2--------2-----2-----||-4---4-------4-5------------5-4---4-------4-5------------5---||-4-------------5--------------4-------------5----------------||-2-------------3--------------2-------------3----------------|
Guitar 1
|-------------------------------3-----------------------------||-------------------------------3-----------------------------||-------------------------------x--------------------2-2-2-2--||-4-------------5---------------0------------2-2-2-2-2-2-2-2--||-4-------------5---------------2------------0-0-0-0-0-0-0-0--||-2-------------3---------------3-----------------------------|
Guitar 2|-------0--------------0-------3------------------------------||---------3--------3-----3-----3------------------------------||-----------2--------2-----2---x------------------------------||-4---4-------4-5------------5-0------------------------------||-4-------------5--------------2------------------------------||-2-------------3--------------3------------------------------|
Chorus --> Guitar 2 plays intro riff.
|--------------------3-x-2-----2--------------------3-x-2-----2--||-2-----x------------3-x-3-----3---2---x------------3-x-3-----3--||-2-----x------4-----0-x-2-----2---2---x------4-----0-x-2-----2--||-2-----x-4----4---x-x-x-----------2---x-4----4---x-x-x----------||---------2----2---x-2-x-----------------2----2---x-2-x----------||--------------------3-x----------------------------3-x----------|
|--------------------3-x-2-----2-------------------||-2-----x------------3-x-3-----3---2-----x---------||-2-----x------4-----0-x-2-----2---2-----x------4--||-2-----x-4----4---x-x-x-----------2-----x-4----4--||---------2----2---x-2-x-------------------2----2--||--------------------3-x---------------------------|
|-3--------|--2--------|------------------||-3--------|--3--------|------------------||-0--------|--2--------|------------------||-x--------|-----------|-2-2-2-2-2-2-2-2--||-2--------|-----------|-2-2-2-2-2-2-2-2--||-3--------|-----------|-0-0-0-0-0-0-0-0--|
Pre-Verse Verse Bridge Chorus Interlude
|---------0-------|---------0-------|---------0--------||-----1-----1---1-|-----1-----1---1-|-----1-----1---1--||---2---2-----2---|---2---2-----2---|---2---2-----2----||-----------------|-----------------|------------------||-0---------------|-----------------|------------------||-----------------|-4---------------|-3----------------|
|---------0-------|---------0-------|---------0--------||-----1-----1---1-|-----1-----1---1-|-----1-----1---1--||---2---2-----2---|---2---2-----2---|---2---2-----2----||-----------------|-----------------|------------------||-----------------|-----------------|------------------||-2---------------|-1---------------|-1----------------|
|-----------------|-----------------||-----------------|-----------------||-----------------|-----------------||-----------------|-x-x---------2-2-| Guitar 1|-----------------|-x-x-----2-2-2-2-||-----------------|---x-0-0-0-0-0-0-|
|
|-----------------|-----------------||-----------------|-----------------||-----------------|-----------------| Guitar 2|-2-2-2-2-2-2-2-2-|-2-2-2-2-2-2-2-2-||-2-2-2-2-2-2-2-2-|-2-2-2-2-2-2-2-2-||-0-0-0-0-0-0-0-0-|-0-0-0-0-0-0-0-0-|
Solo
Solo (Rhythm)|-----------------------------------------||-----------------------------------------||-----------------------------------------| |--7------------5----------4-----3--------||--7-------x----5--------x-4---x-3--------||--5-------x----3--------x-2---x-1--------|
Solo (Lead)
|-------------------------------------------------------------------------||-------------------------------------------------------------------------||-12b14---12b14----12b14~~~---------9h12----------------------------------||------------------------------------------12h14p12-10h12p10--------------||-------------------------------------------------------------------------||-------------------------------------------------------------------------|
|-------------------------------------------------------------------------||-------------------------------------------------------------------------||-------------------------------------------------------------------------||---10------------10h12-12b14r12p10----------10h12-12b14r12p10------------||12----12---10h12----------------------10h12-------------------12-10------||-------------------------------------------------------------------------|
|-------------------------------------------------------------------------||-------------------------------------------------------------------------||-------------------------------------------------------------------------||----10h12-12b14r12p10----------10h12-12b14r12p10----------10h12-12b14r12-||-12-------------------12-10h12-------------------12-10h12----------------||-------------------------------------------------------------------------|
|------------------------------------15b17r15-12-17b19-15r==17-15---------||-------------------------------------------------------------------------||-----------12------------------------------------------------------------||10-12b14------12b14r12-10h12p==10----------------------------------------||-------------------------------------------------------------------------||-------------------------------------------------------------------------|
Outro --> played along chorus rhythm
|-15b17~~~|-------------------------------------------------------||---------|--12b14----12b14---12b14r12---10-10h12p10----10--------||---------|-----------------------------------------11-----11-----||---------|-------------------------------------------------------||---------|-------------------------------------------------------||---------|-------------------------------------------------------|
|---------------------------<12>----------------------------------||-10-12b14--12b14-12b14r=12---------10b12r10----10--------10------||--------------------------------------------11-----10s11---------||-----------------------------------------------------------------||-----------------------------------------------------------------||-----------------------------------------------------------------|
|----------------------12b14r12--------------------------------------------||-10--14p12-----12--------------14p12-------10--12b14-12b14-12b14r12-10----||------------14----14-----------------14-11--------------------------------||------------------------------------------------------------------------5~||------------------------------------------------------------------------5~||------------------------------------------------------------------------3~|
| | / slide up | \ slide down | h hammer-on | p pull-off | ~ vibrato | + harmonic | x Mute note | = Release bend space ============================================================================
Tap to rate this tab
 
# A B C D E F G H I J K L M N O P Q R S T U V W X Y Z