Simple Plan - You Suck At Love tab version 1

Song : You Suck at Love
Artist: Simple Plan
Tabbed by: daniellowe7
Suggestions/improvements: daniellowe7@aol.com

Tuning: half step down

m= Palm-Muted
~ = hold note
^ = vibrate
p = pull off
h = hammer on
/ = slide up
\ = slide down


(lyrics at bottom)

Intro

|--2-2---2-2---2-2---2-2---2-2-----/-\------------||--3-3---3-3---3-3---3-3---3-3-----/-\------------||--2-2---2-2---2-2---2-2---2-2-----/-\------------||--0-0---0-0---0-0---0-0---0-0-----/-\------------| (x2)|-------------------------------------------------||-------------------------------------------------|
Verse 1
|--m--------m------m-------m----m-----------------||-------------------------------------------------||--7----------------------------------------------||--7--x16--7-------9-------7----5-----------------||--5-------7--x16--9--x16--7----5--x16------------||----------5-------7-------5----3-----------------|
We started of incredible..... pre chorus
|---------m-------m------------------m--------m-------||-----------------------------------------------------||---------7-----------------------2--2-----2--2-----2-||--7------7--x16--7-------2-------2--2-x6--2--2-x2--2-||--7--x3--5-------7--x16--2--x12--0--0-----0--0-----0-||--5--------------5-------0---------------------------|
But your love...... 'Cause everyones replaceable.... Chorus
|-----------------------------------------||-----------------------------------------||----------7------------------------------||--5-------7--x4---7-------4--------------||--5--x4---5-------7--x4---4--x4----------||--3---------------5-------2--------------|
Guess what, another game over.......
|-----------------------------------------||-----------------------------------------||----------7------------------------------||--5-------7--x4---7---7-7---7---7---7-7--||--5--x4---5-------7---7-7---7---7---7-7--||--3---------------5---5-5---5---5---5-5--|
I dont know why, im wasting my time with you....
|-----------------------------------------||-----------------------------------------||----------7------------------------------||--5-------7--x4---7-------4--------------||--5--x4---5-------7--x4---4--x4----------||--3---------------5-------2--------------|
You're bad news, a history repeater.....
|-----------------------------------------||-----------------------------------------||-----------------------------------------||--5------7-\-----------------------------||--5-x8---7-\-----------------------------||--3------5-\-----------------------------|
Your good at hooking up but you suck at love Post Chorus
|--2-2---2-2---2-2---2-2---2-2-----/-\------------||--3-3---3-3---3-3---3-3---3-3-----/-\------------||--2-2---2-2---2-2---2-2---2-2-----/-\------------||--0-0---0-0---0-0---0-0---0-0-----/-\------------| (x2)|-------------------------------------------------||-------------------------------------------------|
Verse 2
|--m-------m-------m-------m----m----------------||-------------------------------------------------||--7----------------------------------------------||--7--x16--7-------9-------7----5-----------------||--5-------7--x16--9--x16--7----5--x16------------||----------5-------7-------5----3-----------------|
You played me like an amateur.... Pre Chorus
|---------m-------m------------------m--------m-------||-----------------------------------------------------||---------7-----------------------2--2-----2--2-----2-||--7------7--x16--7-------2-------2--2-x6--2--2-x2--2-||--7--x3--5-------7--x16--2--x12--0--0-----0--0-----0-||--5--------------5-------0---------------------------|
Its not like your...... i know its nothing personal............ Chorus
|-----------------------------------------||-----------------------------------------||----------7------------------------------||--5-------7--x4---7-------4--------------||--5--x4---5-------7--x4---4--x4----------||--3---------------5-------2--------------|
Guess what, another game over.......
|-----------------------------------------||-----------------------------------------||----------7------------------------------||--5-------7--x4---7---7-7---7---7---7-7--||--5--x4---5-------7---7-7---7---7---7-7--||--3---------------5---5-5---5---5---5-5--|
I dont know why, im wasting my time with you....
|-----------------------------------------||-----------------------------------------||----------7------------------------------||--5-------7--x4---7-------4--------------||--5--x4---5-------7--x4---4--x4----------||--3---------------5-------2--------------|
You're bad news, a history repeater.....
|-----------------------------------------||-----------------------------------------||-----------------------------------------||--5------7-\-----------------------------||--5-x8---7-\-----------------------------||--3------5-\-----------------------------|
Your good at hooking up... Post Chorus
|--2-2---2-2---2-2---2-2---2-2-----/-\------------||--3-3---3-3---3-3---3-3---3-3-----/-\------------||--2-2---2-2---2-2---2-2---2-2-----/-\------------||--0-0---0-0---0-0---0-0---0-0-----/-\------------| (x2)|-------------------------------------------------||-------------------------------------------------|
Bridge
|-------------------------------------------------||-------------------------------------------------||-------------------------------------------------||-------------------------------------------------||----9---7---9----------------9---7---9-----------||-------------------------------------------------| Now i kinda feel bad for you....
|----m------=------m----------m------m-----------||-------------------------------------------------||-------------------------------------------------||----2-------------4----------5-------7-----7-----||----2-x8----------4-x8-------5-x8----7-x8--7-x4--||----0-------------2----------3-------5-----5-----|
Another day, another bed, its just a game inside your head Chorus (repeat twice)
|--**-------------------------------------||-----------------------------------------||----------7------------------------------||--5-------7--x4---7-------4--------------||--5--x4---5-------7--x4---4--x4----------||--3---------------5-------2--------------|
Guess what, another game over.......
|-----------------------------------------||-----------------------------------------||----------7------------------------------||--5-------7--x4---7---7-7---7---7---7-7--||--5--x4---5-------7---7-7---7---7---7-7--||--3---------------5---5-5---5---5---5-5--|
I dont know why, im wasting my time with you....
|-----------------------------------------||-----------------------------------------||----------7------------------------------||--5-------7--x4---7-------4--------------||--5--x4---5-------7--x4---4--x4----------||--3---------------5-------2--------------|
You're bad news, a history repeater.....
|-----------------------------------------||-----------------------------------------||-------------------**--------------------||--5------7-------------------------------||--5-x8---7-x8----------------------------||--3------5-------------------------------|
Your good at hooking up
Outro (2nd time)|----------------------------|------------||----------------------------|------------||----------------------------|------------||--5------7------------------|-----\------||--5-x8---7-x8--x2-----------|-----\------||--3------5------------------|-----\------|
your messing this whole thing up...
|--2-2---2-2---2-2---2-2---2-2-----/\--|----\----||--3-3---3-3---3-3---3-3---3-3-----/\--|----\----||--2-2---2-2---2-2---2-2---2-2-----/\--|----\----||--0-0---0-0---0-0---0-0---0-0-----/\--|----\----| (x2)|--------------------------------------|---------||--------------------------------------|---------|
but you suck at love, you suck at love. Lyrics [verse 1] We started of incredible ( 'credible) Connection undeniable ( 'niable) I swear i though you were the one forever (forever) But your love was like a loaded gun (loaded gun) You shot me down like everyone (like everyone) 'Cause everyones replaceable But you'r just so incapable Of getting past skin deep [chorus] Guess what, another game over I got burned, but you're the real loser (hey!) I don't know why (hey!) I've wasted my time with you. You're bad news, a history repeater You can't trust a serial cheater You're good at hooking up, but you suck at love You suck at love [verse 2] You played me like an amateur (amateur) Then stabbed me like a murderer (murderer) Im left for dead, another one of your victims (of your victims) It's not like your unpredictable But your acts are so believable I know its nothing personal Its just business as usual You're good at what you do [chorus] Guess what, another game over I got burned, but you're the real loser (hey!) I don't know why (hey!) I've wasted my time with you. You're bad news, a history repeater You can't trust a serial cheater You're good at hooking up, but you suck at love You suck at love [bridge] Now i kinda feel bad for you You're never gonna know What it's like to have someone to turn to Another day, another bed Its just a game inside your head [chorus] Guess what, another game over I got burned, but you're the real loser (hey!) I don't know why (hey!) I've wasted my time with you. You're bad news, a history repeater You can't trust a serial cheater You're good at hooking up, but you suck at love Guess what, another game over I got burned, but you're the real loser (hey!) I don't know why (hey!) I've wasted my time with you. You're bad news, a history repeater You can't trust a serial cheater [outro] You're good at hooking up You're messing this whole thing up You were such an awesome f**k But you suck at love You suck at love
Tap to rate this tab
 
# A B C D E F G H I J K L M N O P Q R S T U V W X Y Z