Simple Plan – Jet Lag tab ver. 3

-----------------------
 Jet Lag ~ Simple Plan
-----------------------
Album: Get You Heart On!   (2011)

Tabbed By: Russcool
(I know, pretty lame name)

Tuning: Half-Step Down

Tempo: About 144

Timing: 4/4

Legend
L - tied note
x - dead note
h - hammer on/pull off
b - bend
s - slide
~ - vibrato
g - ghost note
> - accentuated note
t - trill
M - palm mute
. - staccato
P - popping (bass)
S - slapping (bass)
+ - tapping
W - wide vibrato
< - fade in
w - whammy bar
= - tremolo picking
v - brush up
^ - brush down
V - pick stroke up
n - pick stroke down



INTRO

Guitar 1 (Let Ring)D#|----------------------------|--------------12------------|A#|--13----13-12----12-13------|--13-15----15-------15------|F#|-----12-------12-------12---|--------12-------12----12---| x4C#|----------------------------|----------------------------|G#|----------------------------|----------------------------|D#|----------------------------|----------------------------|
Guitar 2 (Enter on Third Repeat) D#|----------------------------|----------------------------|A#|----------------------------|----------------------------|F#|--5-------------------------|----------------------------| x2C#|--5--------5--------3-------|--3--3L-3L----3-------------|G#|--3--------5--------3-------|--3--3L-3L----3-------------|D#|-----------3--------1-------|--1--1L-1L----1-------------|
VERSE
Guitars 1 & 2----------------------------|----------------------------|----------------------------|----------------------------|----------------------------|----------------------------|--5M-5M-5M-5M-5M-5M-5M-5M---|--5M-5M-5M-5M-5M-5M-5M-5M---|--3M-3M-3M-3M-3M-3M-3M-3M---|--3M-3M-3M-3M-3M-3M-3M-3M---|----------------------------|----------------------------|
----------------------------|----------------------------|----------------------------|----------------------------|----------------------------|----------------------------|----------------------------|----------------------------|--3M-3M-3M-3M-3M-3M-3M-3M---|--3M-3M-3M-3M-3M-3M-3M-3M---|--1M-1M-1M-1M-1M-1M-1M-1M---|--1M-1M-1M-1M-1M-1M-1M-1M---|
----------------------------|----------------------------|----------------------------|----------------------------|----------------------------|----------------------------|--5M-5M-5M-5M-5M-5M-5M-5M---|--5M-5M-5M-5M-5M-5M-5M-5M---|--3M-3M-3M-3M-3M-3M-3M-3M---|--3M-3M-3M-3M-3M-3M-3M-3M---|----------------------------|----------------------------|
----------------------------|----------------------------|----------------------------|----------------------------|----------------------------|----------------------------|----------------------------|----------------------------|--3M-3M-3M-3M-3M-3M-3M-3M---|--3M-3M-3M-3M-3M-3M-3M-3M---|--1M-1M-1M-1M-1M-1M-1M-1M---|--1M-1M-1M-1M-1M-1M-1M-1M---|
PRE-CHORUS
Guitars 1 & 2----------------------------|----------------------------|----------------------------|----------------------------|--2M-2M-2M-2M-2M-2M-2M-2M---|--2M-2M-2M-2M-2M-2M-2M-2M---|--2M-2M-2M-2M-2M-2M-2M-2M---|--2M-2M-2M-2M-2M-2M-2M-2M---|--0M-0M-0M-0M-0M-0M-0M-0M---|--0M-0M-0M-0M-0M-0M-0M-0M---|----------------------------|----------------------------|
----------------------------|----------------------------|----------------------------|----------------------------|----------------------------|----------------------------|--3M-3M-3M-3M-3M-3M-3M-3M---|--3M-3M-3M-3M-3M-3M-3M-3M---|--3M-3M-3M-3M-3M-3M-3M-3M---|--3M-3M-3M-3M-3M-3M-3M-3M---|--1M-1M-1M-1M-1M-1M-1M-1M---|--1M-1M-1M-1M-1M-1M-1M-1M---|
----------------------------|----------------------------|----------------------------|----------------------------|--2M-2M-2M-2M-2M-2M-2M-2M---|--2M-2M-2M-2M-2M-2M-2M-2M---|--2M-2M-2M-2M-2M-2M-2M-2M---|--2M-2M-2M-2M-2M-2M-2M-2M---|--0M-0M-0M-0M-0M-0M-0M-0M---|--0M-0M-0M-0M-0M-0M-0M-0M---|----------------------------|----------------------------|
----------------------------|----------------|----------------------------|----------------|----------------------------|----------------|--5--5--5--5--5--5--5--5----|--5s------------|--5--5--5--5--5--5--5--5----|--5s------------|--3--3--3--3--3--3--3--3----|--3s------------|
CHORUS
Guitars 1 & 2----------------------------|----------------------------|----------------------------|----------------------------|--5--5--5--5--5--5--5--5----|----------------------------|--5--5--5--5--5--5--5--5----|--3--3--3--3--3--3--3--3----|--3--3--3--3--3--3--3--3----|--3--3--3--3--3--3--3--3----|----------------------------|--1--1--1--1--1--1--1--1----|
----------------------------|----------------------------|----------------------------|----------------------------|--2--2--2--2--2--2--2--2----|----------------------------|--2--2--2--2--2--2--2--2----|--5--5--5--5--5--5--5--5----|--0--0--0--0--0--0--0--0----|--5--5--5--5--5--5--5--5----|----------------------------|--3--3--3--3--3--3--3--3----|
----------------------------|----------------------------|----------------------------|----------------------------|--5--5--5--5--5--5--5--5----|----------------------------|--5--5--5--5--5--5--5--5----|--3--3--3--3--3--3--3--3----|--3--3--3--3--3--3--3--3----|--3--3--3--3--3--3--3--3----|----------------------------|--1--1--1--1--1--1--1--1----|
----------------------------|----------------------------|----------------------------|----------------------------|--2--2--2--2--2--2--2--2----|----------------------------|--2--2--2--2--2--2--2--2----|--5--5--5--5--5--5--5--5----|--0--0--0--0--0--0--0--0----|--5--5--5--5--5--5--5--5----|----------------------------|--3--3--3--3--3--3--3--3----|
And My Heart, Heart...
Guitar 1 (Let Ring)----------------------------|--------------12------------|--13----13-12----12-13------|--13-15----15-------15------|-----12-------12-------12---|--------12-------12----12---| x4----------------------------|----------------------------|----------------------------|----------------------------|----------------------------|----------------------------|
Guitar 2 ----------------------------|----------------------------|----------------------------|----------------------------|--------5-----5--------5L---|--5-------------------------|--------5-----5--------5L---|--5--3--3-----3-----3-------|--------3-----3--------3L---|--3--3--3-----3-----3-------|----------------------------|-----1--1-----1-----1-------|
----------------------------|----------------------------|----------------------------|----------------------------|--------2-----2--------2L---|--2-------------------------|--------2-----2--------2L---|--2--5--5-----5-----5-------|--------0-----0--------0L---|--0--5--5-----5-----5-------|----------------------------|-----3--3-----3-----3-------|
----------------------------|----------------------------|----------------------------|----------------------------|--------5-----5--------5L---|--5-------------------------|--------5-----5--------5L---|--5--3--3-----3-----3-------|--------3-----3--------3L---|--3--3--3-----3-----3-------|----------------------------|-----1--1-----1-----1-------|
----------------------------|----------------------------|----------------------------|----------------------------|--------2-----2--------2L---|--2-------------------------|--------2-----2--------2L---|--2--5--5-----5-------------|--------0-----0--------0L---|--0--5--5-----5-------------|----------------------------|-----3--3-----3-------------|
INTERLUDE
Guitar 1 (Let Ring)----------------------------|--------------12------------|--13----13-12----12-13------|--13-15----15-------15------|-----12-------12-------12---|--------12-------12----12---| ----------------------------|----------------------------|----------------------------|----------------------------|----------------------------|----------------------------|
Guitar 2 ----------------------------|----------------------------|----------------------------|----------------------------|--5-------------------------|----------------------------| --5--------5--------3-------|--3--3L-3L----3-------------|--3--------5--------3-------|--3--3L-3L----3-------------|-----------3--------1-------|--1--1L-1L----1-------------|
VERSE PRE-CHORUS CHORUS BRIDGE
Guitar 1-----------|---13------|-----------|-----------|-----------|-----------|
Guitar 2-----------|-----------|---5-------|---5-------|---3-------|-----------|
I Miss You So Bad...
Guitar 1-----------8----------------|-----------8----------------|--8-----------------8-------|--8-----------------8-------|----------------------------|----------------------------|----------------------------|----------------------------|----------------------------|----------------------------|----------------------------|----------------------------|
-----------8----------------|-----------8----------------|--6-----------------6-------|--6-----------------6-------|----------------------------|----------------------------|----------------------------|----------------------------|----------------------------|----------------------------|----------------------------|----------------------------|
-----------8----------------|-----------8----------------|--8-----------------8-------|--8-----------------8-------|----------------------------|----------------------------|----------------------------|----------------------------|----------------------------|----------------------------|----------------------------|----------------------------|
-----------8----------------|-----------8----------------|--6-----------------6-------|--6-----------------6-------|----------------------------|----------------------------|----------------------------|----------------------------|----------------------------|----------------------------|----------------------------|----------------------------|
-----------8----------------|-----------8----------------|--8-----------------8-------|--8-----------------8-------|----------------------------|----------------------------|----------------------------|----------------------------|----------------------------|----------------------------|----------------------------|----------------------------|
-----------8----------------|-----------8----------------|--6-----------------6-------|--6-----------------6-------|----------------------------|----------------------------|----------------------------|----------------------------|----------------------------|----------------------------|----------------------------|----------------------------|
CHORUS OUTRO
Guitar 1 (Let Ring)----------------------------|--------------12------------|--13----13-12----12-13------|--13-15----15-------15------|-----12-------12-------12---|--------12-------12----12---| ----------------------------|----------------------------|----------------------------|----------------------------|----------------------------|----------------------------|
Guitar 2 ----------------------------|----------------------------|----------------------------|----------------------------|--5-------------------------|----------------------------| --5--------5--------3-------|--3--3L-3L----3-------------|--3--------5--------3-------|--3--3L-3L----3-------------|-----------3--------1-------|--1--1L-1L----1-------------|
Please rate this tab:
x1.0