Simple Plan - Gone Too Soon tab version 1

-----------------------------
 Gone Too Soon ~ Simple Plan
-----------------------------
Album: Get Your Heart On   (2011)

Tabbed By: Russcool
(I know, pretty lame name)

Tuning: Standard

Tempo: About 90





INTRO

Acoustic Guitar 1E |----------------------------------------------------|B |----------------------------------------------------|G |--------------------------7-----------------9-------|D |-----------------------------------7----------------|A |----------------------------------------------------|E |----------------------------------------------------|
----------------------------------------------------|----------------------------------------------------|--7-----------------9-------------------------------|-----------7----------------------------------------|----------------------------------------------------|----------------------------------------------------|
----------------------------------------------------|----------------------------------------------------|--------------------------7-----------------7-------|-----------------------------------7----------------|----------------------------------------------------|----------------------------------------------------|
----------------------------------------------------|----------------------------------------------------|--6-----------------------7-----------------9-------|-----------------------------------7----------------|----------------------------------------------------|----------------------------------------------------|
(A Clean Guitar will play the same thing with tremolo picking) VERSE
Acoustic Guitar 1----------------------------------------------------|----------------------------------------------------|--7-----------------9-------------------------------|-----------7----------------------------------------|----------------------------------------------------|----------------------------------------------------|
----------------------------------------------------|----------------------------------------------------|--7-----------------9-------------------------------|-----------7----------------------------------------|----------------------------------------------------|----------------------------------------------------|
----------------------------------------------------|----------------------------------------------------|--7-----------------9-------------------------------|-----------7----------------------------------------|----------------------------------------------------|----------------------------------------------------|
----------------------------------------------------|--------------------7-------------------------------|--7-------------------------------------------------|-----------7----------------------------------------|----------------------------------------------------|----------------------------------------------------|
----------------------------------------------------|----------------------------------------------------|--7-----------------9-------------------------------|-----------7----------------------------------------|----------------------------------------------------|----------------------------------------------------|
----------------------------------------------------|----------------------------------------------------|--7-----------------9-------------------------------|-----------7----------------------------------------|----------------------------------------------------|----------------------------------------------------|
----------------------------------------------------|----------------------------------------------------|--7-----------------9-------------------------------|-----------7----------------------------------------|----------------------------------------------------|----------------------------------------------------|
----------------------------------------------------|--------------------7-------------------------------|--7-------------------------------------------------|-----------7----------------------------------------|----------------------------------------------------|----------------------------------------------------|
(A Clean Guitar will play the same thing with tremolo picking) PRE-CHORUS
Acoustic Guitar 1----------------------------------------------------|----------------------------------------------------|--------------------7-------------------------------| x2--5--------7----------------------------------------|----------------------------------------------------|----------------------------------------------------|
(A Clean Guitar will play the same thing with tremolo picking) CHORUS
Acoustic Guitar 1--2-----2--2--2-----2--2--2-----2--2--2-----2--2----|--3-----3--3--3-----3--3--3-----3--3--3-----3--3----|--2-----2--2--2-----2--2--2-----2--2--2-----2--2----|--0-----0--0--0-----0--0--0-----0--0--0-----0--0----|----------------------------------------------------|----------------------------------------------------|
--3-----3--3--3-----3--3--3-----3--3--3-----3--3----|--3-----3--3--3-----3--3--3-----3--3--3-----3--3----|--0-----0--0--0-----0--0--0-----0--0--0-----0--0----|--0-----0--0--0-----0--0--0-----0--0--0-----0--0----|--x-----x--x--x-----x--x--x-----x--x--x-----x--x----|--3-----3--3--3-----3--3--3-----3--3--3-----3--3----|
--2-----2--2--2-----2--2--2-----2--2--2-----2--2----|--3-----3--3--3-----3--3--3-----3--3--3-----3--3----|--4-----4--4--4-----4--4--4-----4--4--4-----4--4----|--4-----4--4--4-----4--4--4-----4--4--4-----4--4----|--2-----2--2--2-----2--2--2-----2--2--2-----2--2----|----------------------------------------------------|
--0-----0--0--0-----0--0--0-----0--0--0-----0--0----|--2-----2--2--2-----2--2--2-----2--2--2-----2--2----|--2-----2--2--2-----2--2--2-----2--2--2-----2--2----|--2-----2--2--2-----2--2--2-----2--2--2-----2--2----|--0-----0--0--0-----0--0--0-----0--0--0-----0--0----|----------------------------------------------------|
--2-----2--2--2-----2--2--2-----2--2--2-----2--2----|--3-----3--3--3-----3--3--3-----3--3--3-----3--3----|--2-----2--2--2-----2--2--2-----2--2--2-----2--2----|--0-----0--0--0-----0--0--0-----0--0--0-----0--0----|----------------------------------------------------|----------------------------------------------------|
--3-----3--3--3-----3--3--3-----3--3--3-----3--3----|--3-----3--3--3-----3--3--3-----3--3--3-----3--3----|--0-----0--0--0-----0--0--0-----0--0--0-----0--0----|--0-----0--0--0-----0--0--0-----0--0--0-----0--0----|--x-----x--x--x-----x--x--x-----x--x--x-----x--x----|--3-----3--3--3-----3--3--3-----3--3--3-----3--3----|
--2-----2--2--2-----2--2--0-----0--0--0-----0--0----|--3-----3--3--3-----3--3--2-----2--2--2-----2--2----|--4-----4--4--4-----4--4--2-----2--2--2-----2--2----|--4-----4--4--4-----4--4--2-----2--2--2-----2--2----|--2-----2--2--2-----2--2--0-----0--0--0-----0--0----|----------------------------------------------------|
--3-----3--3--3-----3--3--3-----3--3--3-----3--3----|--3-----3--3--3-----3--3--3-----3--3--3-----3--3----|--0-----0--0--0-----0--0--0-----0--0--0-----0--0----|--0-----0--0--0-----0--0--0-----0--0--0-----0--0----|--x-----x--x--x-----x--x--x-----x--x--x-----x--x----|--3-----3--3--3-----3--3--3-----3--3--3-----3--3----|
INTERLUDE
Acoustic Guitar 1----------------------------------------------------|----------------------------------------------------|--7-----------------9-------------------------------| x2-----------7----------------------------------------|----------------------------------------------------|----------------------------------------------------|
(A Clean Guitar will play the same thing with tremolo picking)
Acoustic Guitar 2--2-----2--2--2-----2--2--2-----2--2--2-----2--2----|--3-----3--3--3-----3--3--3-----3--3--3-----3--3----|--2-----2--2--2-----2--2--2-----2--2--2-----2--2----|--0-----0--0--0-----0--0--0-----0--0--0-----0--0----|----------------------------------------------------|----------------------------------------------------|
--2-----2--2--2-----2--2--2-----2--2--2-----2--2----|--3-----3--3--3-----3--3--3-----3--3--3-----3--3----|--2-----2--2--2-----2--2--2-----2--2--2-----2--2----|--0-----0--0--0-----0--0--0-----0--0--0-----0--0----|----------------------------------------------------|----------------------------------------------------|
VERSE (Acoustic Guitar 1 and the Clean Guitar play the same thing as the last Verse)
Acoustic Guitar 2--2-----2--2--2-----2--2--2-----2--2--2-----2--2----|--3-----3--3--3-----3--3--3-----3--3--3-----3--3----|--2-----2--2--2-----2--2--2-----2--2--2-----2--2----|--0-----0--0--0-----0--0--0-----0--0--0-----0--0----|----------------------------------------------------|----------------------------------------------------|
--3-----3--3--3-----3--3--3-----3--3--3-----3--3----|--3-----3--3--3-----3--3--3-----3--3--3-----3--3----|--0-----0--0--0-----0--0--0-----0--0--0-----0--0----|--0-----0--0--0-----0--0--0-----0--0--0-----0--0----|--x-----x--x--x-----x--x--x-----x--x--x-----x--x----|--3-----3--3--3-----3--3--3-----3--3--3-----3--3----|
--2-----2--2--2-----2--2--2-----2--2--2-----2--2----|--3-----3--3--3-----3--3--3-----3--3--3-----3--3----|--4-----4--4--4-----4--4--4-----4--4--4-----4--4----|--4-----4--4--4-----4--4--4-----4--4--4-----4--4----|--2-----2--2--2-----2--2--2-----2--2--2-----2--2----|----------------------------------------------------|
--0-----0--0--0-----0--0--0-----0--0--0-----0--0----|--2-----2--2--2-----2--2--2-----2--2--2-----2--2----|--2-----2--2--2-----2--2--2-----2--2--2-----2--2----|--2-----2--2--2-----2--2--2-----2--2--2-----2--2----|--0-----0--0--0-----0--0--0-----0--0--0-----0--0----|----------------------------------------------------|
--2-----2--2--2-----2--2--2-----2--2--2-----2--2----|--3-----3--3--3-----3--3--3-----3--3--3-----3--3----|--2-----2--2--2-----2--2--2-----2--2--2-----2--2----|--0-----0--0--0-----0--0--0-----0--0--0-----0--0----|----------------------------------------------------|----------------------------------------------------|
--3-----3--3--3-----3--3--3-----3--3--3-----3--3----|--3-----3--3--3-----3--3--3-----3--3--3-----3--3----|--0-----0--0--0-----0--0--0-----0--0--0-----0--0----|--0-----0--0--0-----0--0--0-----0--0--0-----0--0----|--x-----x--x--x-----x--x--x-----x--x--x-----x--x----|--3-----3--3--3-----3--3--3-----3--3--3-----3--3----|
--2-----2--2--2-----2--2--2-----2--2--2-----2--2----|--3-----3--3--3-----3--3--3-----3--3--3-----3--3----|--4-----4--4--4-----4--4--4-----4--4--4-----4--4----|--4-----4--4--4-----4--4--4-----4--4--4-----4--4----|--2-----2--2--2-----2--2--2-----2--2--2-----2--2----|----------------------------------------------------|
--0-----0--0--0-----0--0--0-----0--0--0-----0--0----|--2-----2--2--2-----2--2--2-----2--2--2-----2--2----|--2-----2--2--2-----2--2--2-----2--2--2-----2--2----|--2-----2--2--2-----2--2--2-----2--2--2-----2--2----|--0-----0--0--0-----0--0--0-----0--0--0-----0--0----|----------------------------------------------------|
Electric Guitar 1 (Arpeggio Up)---2---|---3---|---2---| x2---0---|-------|-------|
PRE-CHORUS
Acoustic Guitar 1 & Electric Guitar 1----------------------------------------------------|----------------------------------------------------|--------------------7-------------------------------| x2--5--------7----------------------------------------|----------------------------------------------------|----------------------------------------------------|
(A Clean Guitar will play the same thing with tremolo picking)
Acoustic Guitar 2--2-----2--2--2-----2--2--2-----2--2--2-----2--2----|--3-----3--3--3-----3--3--3-----3--3--3-----3--3----|--2-----2--2--2-----2--2--2-----2--2--2-----2--2----|--0-----0--0--0-----0--0--0-----0--0--0-----0--0----|----------------------------------------------------|----------------------------------------------------|
--3-----3--3--3-----3--3--3-----3--3--3-----3--3----|--3-----3--3--3-----3--3--3-----3--3--3-----3--3----|--0-----0--0--0-----0--0--0-----0--0--0-----0--0----|--0-----0--0--0-----0--0--0-----0--0--0-----0--0----|--x-----x--x--x-----x--x--x-----x--x--x-----x--x----|--3-----3--3--3-----3--3--3-----3--3--3-----3--3----|
--2-----2--2--2-----2--2--2-----2--2--2-----2--2----|--3-----3--3--3-----3--3--3-----3--3--3-----3--3----|--4-----4--4--4-----4--4--4-----4--4--4-----4--4----|--4-----4--4--4-----4--4--4-----4--4--4-----4--4----|--2-----2--2--2-----2--2--2-----2--2--2-----2--2----|----------------------------------------------------|
--0-----0--0--0-----0--0--0-----0--0--0-----0--0----|--2-----2--2--2-----2--2--2-----2--2--2-----2--2----|--2-----2--2--2-----2--2--2-----2--2--2-----2--2----|--2-----2--2--2-----2--2--2-----2--2--2-----2--2----|--0-----0--0--0-----0--0--0-----0--0--0-----0--0----|----------------------------------------------------|
CHORUS (Acoustic Guitar 1 plays the same as the first Chorus)
Acoustic Guitar 2----------------------------------------------------|----------------------------------------------------|--7-----------------9-------------------------------|-----------7----------------------------------------|----------------------------------------------------|----------------------------------------------------|
----------------------------------------------------|----------------------------------------------------|--7-----------------9-------------------------------|-----------7----------------------------------------|----------------------------------------------------|----------------------------------------------------|
----------------------------------------------------|----------------------------------------------------|--------------------------7-----------------7-------|-----------------------------------7----------------|----------------------------------------------------|----------------------------------------------------|
----------------------------------------------------|----------------------------------------------------|--6-----------------------7-----------------9-------|-----------------------------------7----------------|----------------------------------------------------|----------------------------------------------------|
----------------------------------------------------|----------------------------------------------------|--7-----------------9-------------------------------|-----------7----------------------------------------|----------------------------------------------------|----------------------------------------------------|
----------------------------------------------------|----------------------------------------------------|--7-----------------9-------------------------------|-----------7----------------------------------------|----------------------------------------------------|----------------------------------------------------|
----------------------------------------------------|----------------------------------------------------|--------------------------7-----------------7-------|-----------------------------------7----------------|----------------------------------------------------|----------------------------------------------------|
----------------------------------------------------|----------------------------------------------------|--6-----------------------7-----------------9-------|-----------------------------------7----------------|----------------------------------------------------|----------------------------------------------------|
(A Clean Guitar will play the same thing with tremolo picking)
Electric Guitar 1----------------------------|----------------------------|----------------------------|----------------------------|--7--7--7--7--7--7--7--7----|----------------------------|--7--7--7--7--7--7--7--7----|--5--5--5--5--5--5--5--5----|--5--5--5--5--5--5--5--5----|--5--5--5--5--5--5--5--5----|----------------------------|--3--3--3--3--3--3--3--3----|
----------------------------|----------------------------|----------------------------|----------------------------|----------------------------|----------------------------|--9--9--9--9--9--9--9--9----|--7--7--7--7--7--7--7--7----|--9--9--9--9--9--9--9--9----|--7--7--7--7--7--7--7--7----|--7--7--7--7--7--7--7--7----|--5--5--5--5--5--5--5--5----|
----------------------------|----------------------------|----------------------------|----------------------------|--7--7--7--7--7--7--7--7----|----------------------------|--7--7--7--7--7--7--7--7----|--5--5--5--5--5--5--5--5----|--5--5--5--5--5--5--5--5----|--5--5--5--5--5--5--5--5----|----------------------------|--3--3--3--3--3--3--3--3----|
----------------------------|----------------------------|----------------------------|----------------------------|----------------------------|----------------------------|--9--9--9--9--7--7--7--7----|--5--5--5--5--5--5--5--5----|--9--9--9--9--7--7--7--7----|--5--5--5--5--5--5--5--5----|--7--7--7--7--5--5--5--5----|--3--3--3--3--3--3--3--3----|
BRIDGE
Electric Guitar 1----------------------------|----------------------------|----------------------------|----------------------------|--7--7--7--7----------------|----------------------------|--7--7--7--7--5--5--5--5----|--9--9--9--9--7--7--7--7----|--5--5--5--5--5--5--5--5----|--9--9--9--9--7--7--7--7----|--------------3--3--3--3----|--7--7--7--7--5--5--5--5----|
----------------------------|----------------------------|----------------------------|----------------------------|--7--7--7--7----------------|----------------------------|--7--7--7--7--5--5--5--5----|--9--9--9--9--7--7--7--7----|--5--5--5--5--5--5--5--5----|--9--9--9--9--7--7--7--7----|--------------3--3--3--3----|--7--7--7--7--5--5--5--5----|
----------------------------|----------------------------|----------------------------|----------------------------|----------------------------|----------------------------|--5--5--5--5--5--5--5--5----|--7--7--7--7--7--7--7--7----|--5--5--5--5--5--5--5--5----|--7--7--7--7--7--7--7--7----|--3--3--3--3--3--3--3--3----|--5--5--5--5--5--5--5--5----|
Electric Guitar 2 (Let Ring)----------------------------------------------------|--15----------------17----15----------------17------|-----------14----------------------14---------------|----------------------------------------------------|----------------------------------------------------|----------------------------------------------------|
----------------------------------------------------|--15----------------17----19-------17-------15------|-----------14---------------------------------------|----------------------------------------------------|----------------------------------------------------|----------------------------------------------------|
----------------------------------------------------|--15----------------17----15----------------17------|-----------14----------------------14---------------|----------------------------------------------------|----------------------------------------------------|----------------------------------------------------|
----------------------------------------------------|--15----------------17----19-------17-------15------|-----------14---------------------------------------|----------------------------------------------------|----------------------------------------------------|----------------------------------------------------|
----------------------------------------------------|--15----------------17----15----------------17------|-----------14----------------------14---------------|----------------------------------------------------|----------------------------------------------------|----------------------------------------------------|
----------------------------------------------------|--15----------------17----19-------17-------15------|-----------14---------------------------------------|----------------------------------------------------|----------------------------------------------------|----------------------------------------------------|
----------------------------------------------------|--15----------------17----15----------------17------|-----------14----------------------14---------------|----------------------------------------------------|----------------------------------------------------|----------------------------------------------------|
----------------------------------------------------|--15----------------17----19-------17-------15------|-----------14---------------------------------------|----------------------------------------------------|----------------------------------------------------|----------------------------------------------------|
CHORUS
Electric Guitar 1----------------------------|----------------------------|----------------------------|----------------------------|--9-----9--9--9--9--9--9----|----------------------------|--9-----9--9--9--9--9--9----|--7--7--7--7--7--7--7--7----|--7-----7--7--7--7--7--7----|--7--7--7--7--7--7--7--7----|----------------------------|--5--5--5--5--5--5--5--5----|
----------------------------|----------------------------|----------------------------|----------------------------|----------------------------|----------------------------|--11-11-11-11-11-11-11-11---|--9--9--9--9--9--9--9--9----|--11-11-11-11-11-11-11-11---|--9--9--9--9--9--9--9--9----|--9--9--9--9--9--9--9--9----|--7--7--7--7--7--7--7--7----|
----------------------------|----------------------------|----------------------------|----------------------------|--9-----9--9--9--9--9--9----|----------------------------|--9-----9--9--9--9--9--9----|--7--7--7--7--7--7--7--7----|--7-----7--7--7--7--7--7----|--7--7--7--7--7--7--7--7----|----------------------------|--5--5--5--5--5--5--5--5----|
----------------------------|----------------------------|----------------------------|----------------------------|----------------------------|----------------------------|--11-11-11-11-9--9--9--9----|--7--7--7--7--7--7--7--7----|--11-11-11-11-9--9--9--9----|--7--7--7--7--7--7--7--7----|--9--9--9--9--7--7--7--7----|--5--5--5--5--5--5--5--5----|
OUTRO
Electric Guitar 1----------------------------|----------------------------|----------------------------|----------------------------|--9-----9--9--9--9--9--9----|----------------------------|--9-----9--9--9--9--9--9----|--7--7--7--7--7--7--7--7----|--7-----7--7--7--7--7--7----|--7--7--7--7--7--7--7--7----|----------------------------|--5--5--5--5--5--5--5--5----|
----------------------------|----------------------------|----------------------------|----------------------------|----------------------------|----------------------------|--11-11-11-11-11-11-11-11---|--9--9--9--9--9--9--9--9----|--11-11-11-11-11-11-11-11---|--9--9--9--9--9--9--9--9----|--9--9--9--9--9--9--9--9----|--7--7--7--7--7--7--7--7----|
----------------------------|----------------------------|----------------------------|----------------------------|--9-----9--9--9--9--9--9----|----------------------------|--9-----9--9--9--9--9--9----|--7--7--7--7--7--7--7--7----|--7-----7--7--7--7--7--7----|--7--7--7--7--7--7--7--7----|----------------------------|--5--5--5--5--5--5--5--5----|
----------------------------|-------||----------------------------|-------||----------------------------|-------||--11-11-11-11-9--9--9--9----|--7----||--11-11-11-11-9--9--9--9----|--7----||--9--9--9--9--7--7--7--7----|--5----||
Tap to rate this tab
 
# A B C D E F G H I J K L M N O P Q R S T U V W X Y Z