Sing It Loud - Were Not Affraid tab

i figured it out in drop d

introrhythm guitar:---------------------------------|---------------------------------|5--55-5--55--55-5--55-5--55-5555-|5--55-5--55--55-5--55-5--55-5555-|3--33-3--77--55-3--33-3--77-5555-|---33-3--77--55----33-3--77-5555-| xxxx
-------------------------------|-------------------------------|5--55-5--55--55-5--55-5--55-55-|5--55-5--55--55-5--55-5--55-55-|3--33-3--77--55-3--33-3--77-55-|---33-3--77--55----33-3--77-55-|
verse1ring out part-------------------------------------------------|-------------------------------------------------|5-------------5-----------5------------5---------|5-------------5-----------5------------5---------|3-------------3-----------3----------------------|--------------3------------------------5---------|
------------------------------------------|------------------------------------------|5------5------5------5------5-5-5-5-55555-|5------5------5------5------5-5-5-5-55555-|3-------------3------7------3-3-3-3-55555-|-------5------3------7--------------55555-|
chorus---------------------------------|---------------------------------|5--55-5--55--55-5--55-5--55-5555-|5--55-5--55--55-5--55-5--55-5555-|3--33-3--77--55-3--33-3--77-5555-|---33-3--77--55----33-3--77-5555-| xxxx
-------------------------------|-------------------------------|5--55-5--55--55-5--55-5--55-55-|5--55-5--55--55-5--55-5--55-55-|3--33-3--77--55-3--33-3--77-55-|---33-3--77--55----33-3--77-55-|
post chorus ring out
----------------------------------|----------------------------------|5----------------5----------------|5----------------5-------------5--|3----------------3----------------|----------------------------------|
verse2
-----------------------------------------------------------------------|-----------------------------------------------------------------------|5555555--5555555--5555555--5555555--5555555--5555555--5555555--5555555-|5555555--5555555--5555555--5555555--5555555--5555555--5555555--5555555-|3333333--3333333--3333333--3333333--3333333--3333333-------------------|------------------3333333--3333333--------------------5555555--5555555-|
tasty lick--------------------------------------------|----------------------------------------531-|5------5------5------5------5-5-5-5-0245----|5------5------5------5------5-5-5-5---------|3-------------3------7------3-3-3-3---------|-------5------3------7----------------------|
chorus---------------------------------|---------------------------------|5--55-5--55--55-5--55-5--55-5555-|5--55-5--55--55-5--55-5--55-5555-|3--33-3--77--55-3--33-3--77-5555-|---33-3--77--55----33-3--77-5555-| xxxx
-------------------------------|-------------------------------|5--55-5--55--55-5--55-5--55-55-|5--55-5--55--55-5--55-5--55-55-|3--33-3--77--55-3--33-3--77-55-|---33-3--77--55----33-3--77-55-|
bridge
-------------------------------------------------------------------|-------------------------------------------------------------------|-----------------5555555555555555-55555555555555555555555555555555-|
0000000000000000-5555555555555555-555555555555555555555555555555550000000000000000-3333333333333333-3333333333333333-----------------|0000000000000000-3333333333333333-----------------5555555555555555-|
-------------------------------------------------------------------|-------------------------------------------------------------------|-----------------55555555-5555555-55555555555555555555555555555555-|00000000-0000000-55555555-5555555-55555555555555555555555555555555-|00000000-0000000-33333333-3333333-3333333333333333-----------------|00000000-0000000-33333333-3333333-----------------5555555555555555-|
ring out for a while(piano solo)-----------------------------------|-----------------------------------|5----------------------------------|5----------------------------------|3----------------------------------|-----------------------------------|
------------------------------------------------------------|------------------------------------------------------------|5555555555555555-5555555555555555-5555555555555555-55555555-|5555555555555555-5555555555555555-5555555555555555-55555555-|3333333333333333-3333333333333333-7777777777777777-55555555-|-----------------3333333333333333-7777777777777777-55555555-|xx x x xxxxxxxxx xx x x xxxxxxxxx xx x x xxxxxxxxx xx x xx
--------------------------------------------------------------------|--------------------------------------------------------------------|5555555555555555-5555555555555555-5555555555555555-5555555555555555-|5555555555555555-5555555555555555-5555555555555555-5555555555555555-|3333333333333333-3333333333333333-7777777777777777-5555555555555555-|-----------------3333333333333333-7777777777777777-5555555555555555-|
--------------------------------------------------------------------|--------------------------------------------------------------------|5555555555555555-5555555555555555-5555555555555555-5555555555555555-|5555555555555555-5555555555555555-5555555555555555-5555555555555555-|3333333333333333-3333333333333333-7777777777777777-5555555555555555-|-----------------3333333333333333-7777777777777777-5555555555555555-|
chorus---------------------------------|---------------------------------|5--55-5--55--55-5--55-5--55-5555-|5--55-5--55--55-5--55-5--55-5555-|3--33-3--77--55-3--33-3--77-5555-|---33-3--77--55----33-3--77-5555-| xxxx
---------------------------------|---------------------------------|5--55-5--55--55-5--55-5--55-5555-|5--55-5--55--55-5--55-5--55-5555-|3--33-3--77--55-3--33-3--77-5555-|---33-3--77--55----33-3--77-5555-|
lead guitar: im gonna finish the lead some day hopefully
----------------------|----------------------|9--10-9-7-5--9-9--5-5-|----------------------|7--8--7-5-3--7-7--3-3-|----------------------|
-----------------------|-----------------------|9--10-9-7-5--9-9--5-12-|-----------------------|7--8--7-5-3--7-7--3-10-|-----------------------|
------------------------|------------------------|9--10-9-7-5--9-9--5-5-4-|------------------------|7--8--7-5-3--7-7--3-3-2-|------------------------|
--------------------------|--------------------------|9--10-9-7-5--9-9--5-5-4-5-|--------------------------| ring out7--8--7-5-3--7-7--3-3-2-3-|--------------------------|
Tap to rate this tab
 
# A B C D E F G H I J K L M N O P Q R S T U V W X Y Z