Siq - Ishtar tab

                               Ishtar - Siq                             

Music by siq
tab by Tailus (Transcribed)
guitar tab
tuning: C#-G#-C#-F#-A#-D#. (first d tuning, then half step down)


 
D#||----------------------------------------------------|A#||----------------------------------------------------|F#||----------------------------------------------------|C#||------------13------------12---------13---------12--| x6G#||----------------------------------------------------|C#||--0--0--12------0--0--10------0--12------0--10------|
/////////////////////////////////////////////////////////
--------------------------------------------| --------------------------------------------|--------------------------------------------|--------------14----------------14br--------|--------------------------------------------| --0--0--0--0--14----0--0--0--0--14b---------|
----------------------------------------------| ----------------------------------------------| ----------------------------------------------| --------------15----------------15--17--17----| x3----------------------------------------------|--0--0--0--0--15----0--0--0--0--15--17--17----|
/////////////////////////////////////////////////////////
--------------------------------------------|--------------------------------------------|--------------------------------------------|--------------14----------------14br--------|--------------------------------------------|--0--0--0--0--14----0--0--0--0--14b---------|
--------------------------|---------------------------|--------------------------|---------------------------|--------------------------|---------------------------|--------------15----------|--------15--17--17---------|--------------------------|---------------------------|--0--0--0--0--15----0--0--|--0--0--15--17--17---------|
-----------------------------------------------------| -----------------------------------------------------|-----------------------------------------------------| x7-----------------------------------------------------|---------13---------12---------13---------12---------|--0--12------0--11------0--12------0--11------0--11--|
-------------------------------|--------------------------------|-------------------------------|--------------------------------|-------------------------------|--------------------------------|-------------------------------|--------------------------------|---------13---------12---------|--13---------12---------12------|--0--12------0--11------0--12--|------0--11------0--11------11--|
------------------------------|------------------------------|------------------------------|------------------------------|------------------------------|------------------------------|--0--5--7--0--7--8--0--8--10--|--0--5--7--0--7--8--0--8--10--| x2--0--5--7--0--7--8--0--8--10--|--0--5--7--0--7--8--0--8--10--|--0--5--7--0--7--8--0--8--10--|--0--5--7--0--7--8--0--8--10--|
///////////////////////////////////////////////////////////
--------------------------------------------| --------------------------------------------|--------------------------------------------|--------------14----------------14br--------|--------------------------------------------| --0--0--0--0--14----0--0--0--0--14b---------|
----------------------------------------------| ----------------------------------------------| ----------------------------------------------| --------------15----------------15--17--17----| x3----------------------------------------------|--0--0--0--0--15----0--0--0--0--15--17--17----|
//////////////////////////////////////////////////////////
--------------------------------------------|--------------------------------------------|--------------------------------------------|--------------14----------------14br--------|--------------------------------------------|--0--0--0--0--14----0--0--0--0--14b---------|
--------------------------|---------------------------|--------------------------|---------------------------|--------------------------|---------------------------|--------------15----------|--------15--17--17---------|--------------------------|---------------------------|--0--0--0--0--15----0--0--|--0--0--15--17--17---------|
PM ................................................ -----------------------------------------------------|-----------------------------------------------------|-----------------------------------------------------| x7-----------------------------------------------------|---------13---------12---------13---------12---------|--0--12------0--11------0--12------0--11------0--11--|
-------------------------------|--------------------------------|-------------------------------|--------------------------------|-------------------------------|--------------------------------|-------------------------------|--------------------------------|---------13---------12---------|--13---------12---------12------|--0--12------0--11------0--12--|------0--11------0--11------11--|
///////////////////////////////////////////////////////////
-----------------------------------------|-----------------------------------------|--------------9----------------9b--------|--------------7----------------7b--------| --0--0--0--0--0----0--0--0--0------------| --0--0--0--0-------0--0--0--0------------|
----------------------------------------------| ----------------------------------------------| --------------10----------------10--12--12----| ---------------8-----------------8--10--10----| x3--0--0--0--0--------0--0--0--0----------------|--0--0--0--0---8----0--0--0--0---8--10--10----|
////////////////////////////////////////////////////////////
E E E E Q E E E E H E E E E Q E E -----------------------------------------|--------------------------|-----------------------------------------|--------------------------|--------------9----------------9b--------|--------------10----------|--------------7----------------7b--------|---------------8----------|--0--0--0--0--0----0--0--0--0------------|--0--0--0--0--------0--0--|--0--0--0--0-------0--0--0--0------------|--0--0--0--0---8----0--0--|
E E E E Q E E ------------------------------|------------------------------|--------10--12--12----12--12--|---------8--10--10----10--10--|--0--0------------------------|--0--0---8--10--10----10--10--|
////////////////////////////////////////////////////////////////////////// guitar 1: x6
E E E E E E E E E E E E E E ----------------------------------------------------|----------------------------------------------------|----------------------------------------------------|------------13------------12---------13---------12--|----------------------------------------------------|--0--0--12------0--0--10------0--12------0--10------|
guitar 2: x6
E E E E E E E E E E E E E E ----------------------------------------------------------|----------------------------------------------------------|--14--14--14--14--14--14--14--14--14--14--14--14--14--14--|----------------------------------------------------------| --12--12--12--12--12--12--12--12--12--12--12--12--12--12--| ----------------------------------------------------------|
E E E E E E E E E E E E E E ----------------------------------------------------------| ----------------------------------------------------------| --15--15--15--15--15--15--15--15--15--15--15--15--15--15--| ----------------------------------------------------------|--13--13--13--13--13--13--13--13--13--13--13--13--13--13--|----------------------------------------------------------|
//////////////////////////////////////////////////////////////////////////
------------------------------|------------------------------|------------------------------|------------------------------|------------------------------|------------------------------| --0--5--7--0--7--8--0--8--10--|--0--5--7--0--7--8--0--8--10--| x2--0--5--7--0--7--8--0--8--10--|--0--5--7--0--7--8--0--8--10--|--0--5--7--0--7--8--0--8--10--|--0--5--7--0--7--8--0--8--10--|
PM ........................................................
------------------------------|------------------------------|------------------------------|------------------------------|------------------------------|------------------------------| x2------------------------------|------------------------------|------------------------------|------------------------------|--0--5--7--0--7--8--0--8--10--|--0--5--7--0--7--8--0--8--10--|
----------------------------------------------------|----------------------------------------------------|----------------------------------------------------| x2----------------------------------------------------|--0--0--12--13--0--0--10--12--0--12--13--0--10--12--|--0--0--12--13--0--0--10--12--0--12--13--0--10--12--|
-------------------------------------------|-------------------------------------------|-------------------------------------------|-------------------------------------------|--0--0--12--13--0--0--10--12---------------|--0--0--12--13--0--0--10--12---------------|
----------------------------------------------------|----------------------------------------------------|----------------------------------------------------|----------------------------------------------------| x3--0--0--12--13--0--0--10--12--0--12--13--0--10--12--|--0--0--12--13--0--0--10--12--0--12--13--0--10--12--|
Let ring------>-------------------|-------------------|-------------------|-------------------|-------------------|-------------------|-------------------|-------------------|-------------------|-------------------|-------------------|-------------------|--1----------------|-------------------|-------------------|--1----------------|-------------------|-------------------|
Let ring-------->
-------------------|-------------------|-------------------|-------------------|-------------------|-------------------|-------------------|-------------------|-------------------|-------------------|-------------------|-------------------|-------------------|-------------------|-------------------|-------------------|--0----------------|-------------------|
-------------------|-------------------|-------------------|-------------------|-------------------|-------------------|-------------------|-------------------|-------------------|-------------------|-------------------|-------------------|-------------------|-------------------|-------------------|-------------------|-------------------|-------------------|
-------------------|-------------------------------|-------------------|-------------------------------|-------------------|-------------------------------|-------------------|---------13---------12---------|-------------------|-------------------------------|-------------------|-----12---------10---------12--|
-------------------------------|--------------------------------|-------------------------------|--------------------------------|-------------------------------|--------------------------------|--13---------12---------13-----|------12---------13---------12--|-------------------------------|--------------------------------|---------10---------12---------|--10---------12---------10------|
-------------------------------|-------------------------------|-------------------------------|-------------------------------|-------------------------------|-------------------------------|---------13---------12---------|--13---------12---------13-----|-------------------------------|-------------------------------|-----12---------10---------12--|---------10---------12---------|
--------------------------------|-------------------------------|--------------------------------|-------------------------------|--------------------------------|-------------------------------|------12---------13---------12--|---------13---------12---------|--------------------------------|-------------------------------|--10---------12---------10------|--0--12------0--10------0--12--|
-------------------------------|--------------------------------|-------------------------------|--------------------------------|-------------------------------|--------------------------------|--13---------12---------13-----|------12---------13---------12--|-------------------------------|--------------------------------|------0--10------0--12------0--|--10------0--12------0--10------|
-------------------------------|-------------------------------|-------------------------------|-------------------------------|-------------------------------|-------------------------------|---------13---------12---------|--13---------12---------13-----|-------------------------------|-------------------------------|--0--12------0--10------0--12--|------0--10------0--12------0--|
--------------------------------|-------------------------|--------------------------------|-------------------------|--------------------------------|-------------------------|------12---------13---------12--|-------13-------12-------|--------------------------------|-------------------------|--10------0--12------0--10------|-------------------------|
---------------------------|---------------------------|---------------------------|---------------------------|---------------------------|---------------------------|--13-------12-------13-----|-----12-------13-------12--|---------------------------|---------------------------|---------------------------|---------------------------|
-------------------------|---------------------------|-------------------------|---------------------------|-------------------------|---------------------------|-------13-------12-------|--13-------12-------13-----|-------------------------|---------------------------|-------------------------|---------------------------|
-------------------------------------|-------------------------------------|-------------------------------------|-----12-------13-------12------------|-------------------------------------|-------------------------------------|
----------------------------------------------------------------------|----------------------------------------------------------------------|----------------------------------------------------------------------|x4----------------10--12--------------------------------------10--12----|---------------------------12--13-------------------------------------|--0--12--13--0----------0----------0--10--12--0--12--13--0----------0-|
///////////////////////////////////////////////////////////////
--------------------------------------------|--------------------------------------------|--9--9--9--9--9--9--9--9--9--9--9--9--9--9--|--x--x--x--x--x--x--x--x--x--x--x--x--x--x--|--7--7--7--7--7--7--7--7--7--7--7--7--7--7--| --0--0--0--0--0--0--0--0--0--0--0--0--0--0--|
----------------------------------------------------------| ----------------------------------------------------------| --10--10--10--10--10--10--10--10--10--10--10--10--12--12--| x4---x---x---x---x---x---x---x---x---x---x---x---x---x---x--|---8---8---8---8---8---8---8---8---8---8---8---8--10--10--|---8---8---8---8---8---8---8---8---8---8---8---8----------|////////////////////////////////////////////////////////////////
----------------------------------------------|----------------------------------------------|--9--9--9--9--9--9--9--9--9--9--9--9--12--12--|--x--x--x--x--x--x--x--x--x--x--x--x---x---x--|--7--7--7--7--7--7--7--7--7--7--7--7--10--10--|--0--0--0--0--0--0--0--0--0--0--0--0---0---0--|
----------------------------------------------------------|----------------------------------------------------------|--10--10--10--10--10--10--10--10--10--10--10--10--14--14--|---x---x---x---x---x---x---x---x---x---x---x---x---x---x--|---8---8---8---8---8---8---8---8---8---8---8---8--12--12--|---8---8---8---8---8---8---8---8---8---8---8---8----------|
----------------------------------------------|----------------------------------------------|--9--9--9--9--9--9--9--9--9--9--9--9--12--12--|--x--x--x--x--x--x--x--x--x--x--x--x---x---x--|--7--7--7--7--7--7--7--7--7--7--7--7--10--10--|--0--0--0--0--0--0--0--0--0--0--0--0---0---0--|
Let ring----> ----------------------------------------------------------|----------------------------------------------------------|--10--10--10--10--10--10--10--10--10--10--10--10--14--14--|---x---x---x---x---x---x---x---x---x---x---x---x---x---x--|---8---8---8---8---8---8---8---8---8---8---8---8--12--12--|---8---8---8---8---8---8---8---8---8---8---8---8----------|
--------------------|-------------------|--------------------|-------------------|--------------------|-------------------|--------------------|-------------------|--------------------|-------------------|--------------------|-------------------|
----------------------------------------------------|----------------------------------------------------|----------------------------------------------------|----------------------------------------------------|--0--0--12--13--0--0--10--12--0--12--13--0--10--12--|--0--0--12--13--0--0--10--12--0--12--13--0--10--12--|
--------------------------------------|--------------------------------------|--------------------------------------|-------13-------12-------13-------12--| x2--------------------------------------|--------------------------------------|
----------------------------------------------------|----------------------------------------------------|----------------------------------------------------|----------------------------------------------------|--0--0--12--13--0--0--10--12--0--12--13--0--10--12--|--0--0--12--13--0--0--10--12--0--12--13--0--10--12--|
----------------------------------------------|----------------------------------------------|----------------------------------------------|---------13---------12---------13---------12--| x2----------------------------------------------|--0--12------0--10------0--12------0--10------|
----------------------------------------------------||----------------------------------------------------||----------------------------------------------------||----------------------------------------------------||--0--0--12--13--0--0--10--12--0--12--13--0--10--12--||--0--0--12--13--0--0--10--12--0--12--13--0--10--12--||
Duration Legend --------------- W - whole H - half Q - quarter E - 8th S - 16th T - 32nd X - 64th . - note dotted |-n-| - n-tuplets Tablature Legend ---------------- x - dead note b - bend br - bendRelease pb - preBend pbr - preBendRelease brb - bendReleaseBend ~ - vibrato W - wide vibrato tr - trill TP - tremolo picking T - tapping S - slap P - pop < - fade in ^ - brush up v - brush down Questions david_metallica2001@hotmail.com www.siqband.com
Tap to rate this tab
 
# A B C D E F G H I J K L M N O P Q R S T U V W X Y Z