Six Feet Under – The Art Of Headhunting tab

t  - tap                 f  - full bend    h - half bend
ph - pinched harmonic    q  - quarter bend t - tap bend
*  - see comment         ^  - Hold bend    r release bend
x  - Stuccatto           ~  - vibrato bend
,  - slight palm mute    () - ghost note, sustained note
"  - tremolo note        <> - Trill

Tuning C F Bb Eb G c

Riff 1.1

|----------------------------||----------------------------||----------------------------||2-----------------53---3----||2-----------------53---3----||0---0-0-0-0-0-0-0-31-0-1----|
Riff 1.2
|--------------------------------||--------------------------------||4/5-54--------------------------||4/5-54---------------53---3-----||----------------------53---3----||--------0-0-0-0-0-0-0-31-0-1----|
Riff 2
|------------------------------||------------------------------||------------------------------||8-----7-----5---6-----5-----3-||8-----7-----5---6-----5-----3-||6-00005-00003-004-00003-00001-|
Riff 3.1
|------------------------------------------||------------------------------------------||---------------7-----3-------------5------||2-------5------7-----3-------3-----5------||2-------5------4-----1-------3-----3------||0---00003-0000-4-00001---00001-00003-0000-|
Riff 3.2
|----------------||----------------||2---9-8-5---6-3-||2---9-8-5---6-3-||0---7-6-3---4-1-||0---7-6-3---4-1-|
Riff 4 (solo riff)
|-----------------------------------------------------------------||-----------------------------------------------------------------||-----------------------------------------------------------------||2----------------------------------------------------------------||2----------------------------------------------------------------||0---000000000000000000000000000000000000000000000000000000000000-|
-----------------------------------------------------------------|-----------------------------------------------------------------|-----------------------------------------------------------------|4---------------4---------------4---------------4----------------|4---------------4---------------4---------------4----------------|2---2222222222222---2222222222222---2222222222222---222222222222-|
-----------------------------------------------------------------|-----------------------------------------------------------------|-----------------------------------------------------------------|5---------------5---------------5---------------5----------------|5---------------5---------------5---------------5----------------|3---3333333333333---3333333333333---3333333333333---333333333333-|
----------------------------------------------------------------|----------------------------------------------------------------|----------------------------------------------------------------|7---------------7---------------9---------------10--------------|7---------------7---------------9---------------10--------------|5---5555555555555---5555555555557---7777777777778---888888888888|
Riff 5
|----||----||----||2---||2---||0---|
PLAYING ORDER 1x Riff 1.1 10x Riff 1.2 4x Riff 2 1x Riff 1.1 7x Riff 1.2 4x Riff 2 2x Riff 3.1 2x Riff 3.2 1x Riff 4 (solo riff) 5x Riff 2 1x Riff 1.1 7x Riff 1.2 9x Riff 2 1x Riff 5
Please rate this tab:
x1.0