Six Feet Under - No Warning Shot tab

Tabbed by:THE SANDMAN
Email:ryan5@iamwasted.com


|----------------||----------------||----------------||----------------||----55556666----||3333--------5555|
|----------------||----------------||2---5---3---6---||2---5---3---6---||0---3---1---4---||----------------|
|--------------------------------||--------------------------------||----------------3-2-------------||3-2-----6-5-----3-2-----6-5-----||3-2-----6-5-----1-0-----6-5-----||1-0-000-4-3-000-----000-4-3-000-| ... ... ... ...
|-----------------------------||-----------------------------||-----------------------------||3-2----------3-2-----6-5-----||3-2----------3-2-----6-5-----||1-0-00000000-1-0-000-4-3-000-| ........ ... ...
|-----------------------------||-----------------------------||---------------------3-2-----||3-2----------3-2-----3-2-----||3-2----------3-2-----1-0-----||1-0-00000000-1-0-000-----000-| ........ ... ...
|---------------------------||---------------------------||---------------------------||7---9---5---7---5---4------||7---9---5---7---5---4------||5---7---3---5---3---2------|. . . . .
|--------------------------------------------||--------------------------------------------||--------------------------------------------||------------------------------------2---3---||------------------------------------2---3---||2-2-2-5-2-2-2-2-2-5-2-2-2-2-2-5-2-2-0---1---|. . . . . . . . . . . . . . . . . .
|--------------------------------------------||--------------------------------------------||--------------------------------------------||------------------------------------4---5---||------------------------------------4---5---||4-4-4-7-4-4-4-4-4-7-4-4-4-4-4-7-4-4-2---3---|. . . . . . . . . . . . . . . . . .
|---------------------||---------------------||---------------------||3-2------3-2---6-5---||3-2------3-2---6-5---||1-0------1-0---4-3---|
|---------------------||---------------------||---------------3-2---||3-2------3-2---3-2---||3-2------3-2---1-0---||1-0------1-0---------|
Tap to rate this tab
 
# A B C D E F G H I J K L M N O P Q R S T U V W X Y Z