Six Feet Under - Decomposition Of The Human Race tab

Six Feet Under
Decomposition of the Human Race
13

Tuning c F Bb Eb G c


INTRO 1.1

|-------------------------------------------------||-------------------------------------------------||9-----9\8----------------8---4-----4/5-----------||9-----9\8----------------8---4-----4/5-----5\4---||7-----7\6----------------6---2-----2/3-----5\4---||7---0-7\6----0-0-0-0-0-0-6---2---0-2/3---0-3\2---|
INTRO 1.2
|--------||--------||--------||2-2-2-2-||2-2-2-2-||0-0-0-0-|
Riff 1.1
|--------------------------------||--------------------------------||--------------------------------||----4/5-----4/5-----4/5-----5/7-||----4/5-----4/5-----4/5-----5/7-||00002/3-00002/3-00002/3-00003/5-|
Riff 1.2
|--------------------------------||--------------------------------||--------------------------------||----4/5-----4/5-----4/5-----8\7-||----4/5-----4/5-----4/5-----8\7-||00002/3 00002/3-00002/3-00006\5-|
Riff 2.1
|--------------------------------||--------------------------------||--------------------------------||5-------4-------9-------8-------||5-------4-------9-------8-------||3-0-0-0-2-0-0-0-7-0-0-0-6-0-0-0-|
Riff 2.2
|--------------------------------||--------------------------------||--------------------------------||5-------4-------8-------7-------||5-------4-------8-------7-------||3-0-0-0-2-0-0-0-6-0-0-0-5-0-0-0-|
Riff 2.3
|--------------------------------||--------------------------------||--------------------------------||5-------4-------10--9---8---7---||5-------4-------10--9---8---7---||3-0-0-0-2-0-0-0-8-0-7-0-6-0-5-0-|
Riff 3.1
|------------||------------||------------||----5-----5-||----5-----5-||33333-33333-|
Riff 3.2
|------------------------||------------------------||------------------------||----5-----5-----6-----3-||----5-----5-----6-----3-||33333-33333-44444-11111-|
Riff 4
|---------------------------------||---------------------------------||---------------------------------||5---4---5---4---8---7---8---8/11-||5---4---5---4---8---7---8---8/11-||3-0-2-0-3-0-2-0-6-0-5-0-6-0-6/9--|
PLAYING ORDER INTRO 1.1 INTRO 1.1 INTRO 1.2 2x Riff 1.1 Riff 1.1 Riff 1.1 Riff 1.2 2x Riff 2.1 Riff 2.2 Riff 2.1 Riff 2.3 Riff 3.1 2x Riff 1.1 Riff 1.1 Riff 1.1 Riff 1.2 2x Riff 2.1 Riff 2.2 Riff 2.1 Riff 2.3 Riff 3.2 2x Riff 1.1 Riff 1.1 Riff 1.1 Riff 1.2 Intro 1.2 Intro 1.2 8x Riff 4 2x Riff 2.1 Riff 2.2 Riff 2.1 Riff 2.3 Riff 3.1 Intro 1.2 Tabbed By: FacEraser117
Tap to rate this tab
 
# A B C D E F G H I J K L M N O P Q R S T U V W X Y Z