Skid Row - Slave To The Grind tab

Skid row - Slave to the grind
Tabbed By: imthebeststd
EMail: bighabit69@iamwasted.com                

Tuning...Drop D (D G C F A D)

 Intro
 
Gtr I|---------------------------------|------------------------------------||---------------------------------|------------------------------------||---------------------------------|------------------------------------||---------------------------------|------------------------------------||---------------------------------|------------------------------------||-0-0-0-0-0-0-0-0-0-0-0-0-0-0-0-0-|--0--0-0-0-0-0-0-0-0-0-0-0-0-0-0-0--|
|
| Gtr II|---------------------------------|------------------------------------||---------------------------------|------------------------------------||---------------------------------|------------------------------------||---------------------------------|------------------------------------||-2-------------------------------|-(2)--------------------------------||-0-------------------------------|-(0)--------------------------------|
|----------------------------||----------------------------||----------------------------||----------------------------||-5--------------------------||-3--0-0-0-0-0-0-0-0-0-0-0-0-|
|
|----------------------------||----------------------------||----------------------------||----------------------------||-5--------------------------||-3--------------------------|
|----------------------------|----------------------------||----------------------------|----------------------------||----------------------------|----------------------------||-7--------------------------|-9--0-0-0-0-0-0-0-0-0-0-0-0-||-5--------------------------|-7--------------------------||----0-0-0-0-0-0-0-0-0-0-0-0-|----------------------------|
|
|----------------------------|----------------------------||----------------------------|----------------------------||----------------------------|----------------------------||-7--------------------------|-9--------------------------||-5--------------------------|-7--------------------------||----------------------------|----------------------------|
|------------------------------||------------------------------||------------------------------||------------------------------||-------------------------4----||-0-0-0-0-0-0-0-0-0-0-0-0-2----|
|
|------------------------------||------------------------------||------------------------------||-9----------------------------||-7-----------------------4----||-------------------------2----|
|----------------------------|-----------------------------||----------------------------|-----------------------------||----------------------------|-----------------------------||----------------------------|-7---------------------------||-5--------------------------|-5---------------------------||-3--0-0-0-0-0-0-0-0-0-0-0-0-|----0-0-0-0-0-0-0-0-0-0-0-0--|
|
|----------------------------|-----------------------------||----------------------------|-----------------------------||----------------------------|-----------------------------||----------------------------|-7---------------------------||-5--------------------------|-5---------------------------||-3--------------------------|-----------------------------|
|---------------------------------||---------------------------------||---------------------------------||---------------------------------||---------------------------------||-5-5-5-5-5-5-5-5-5-5-5-5-5-5-5-5-|
|
|---------------------------------||---------------------------------||---------------------------------||---------------------------------||---------------------------------||-5-5-5-5-5-5-5-5-5-5-5-5-5-5-5-5-|
|-----------------------------------||------------------------------||-----------------------------------||o-----------------------------||-----------------------------------||------------------------------||-----------------------------------||------------------------------||-----------------------------------||o-5------------5--------------||-5-5-5-5-5-5-5-5-5-5-5-5-10\-------||--3-0-0--0-0-0-3-0-0--0-0-0---|
|
|-----------------------------------||------------------------------||-----------------------------------||o-----------------------------||-----------------------------------||------------------------------||-----------------------------------||------------------------------||-----------------------------------||o-5------------5--------------||-5-5-5-5-5-5-5-5-5-5-5-5--5--5-5-5-||--3-0-0--0-0-0-3-0-0--0-0-0---|
|---------------------------|---------------------------||---------------------------|---------------------------||---------------------------|---------------------------||---------------------------|---------------------------||-5------------5------------|-5------------5------------||-3-0-0--0-0-0-3-0-0--0-0-0-|-3-0-0--0-0-0-3-0-0--0-0-0-|
|
|---------------------------|---------------------------||---------------------------|---------------------------||---------------------------|---------------------------||---------------------------|---------------------------||-5------------5------------|-5------------5------------||-3-0-0--0-0-0-3-0-0--0-0-0-|-3-0-0--0-0-0-3-0-0--0-0-0-|
1.|-------------------------------|||------------------------------o|||-------------------------------|||-------------------------------|||-5--------------------5h7-(7)-o|||-3-0-0--0-0-0-3-0-5-0----------||
|
|-------------------------------|||------------------------------o|||-------------------------------|||-------------------------------|||-5--------------------5h7-(7)-o|||-3-0-0--0-0-0-3-0-5-0----------||
2.|------------------------------||------------------------------||------------------------------||------------------------------||-5--------------------5h7-(7)-||-3-0-0--0-0-0-3-0-5-0---------|
|
|------------------------------||------------------------------||------------------------------||------------------------------||-5--------------------5h7-(7)-||-3-0-0--0-0-0-3-0-5-0---------|
1st,2nd Verses||----------------------------|---------------------------|||o---------------------------|---------------------------|||----------------------------|---------------------------|||----------------------------|---------------------------|||o-5------------5------------|-5------------5------------|||--3-0-0--0-0-0-3-0-0--0-0-0-|-3-0-0--0-0-0-3-0-0--0-0-0-|
|
||----------------------------|---------------------------|||o---------------------------|---------------------------|||----------------------------|---------------------------|||----------------------------|---------------------------|||o-5------------5------------|-5------------5------------|||--3-0-0--0-0-0-3-0-0--0-0-0-|-3-0-0--0-0-0-3-0-0--0-0-0-|
|---------------------------||---------------------------||---------------------------||---------------------------||-5------------5------------||-3-0-0--0-0-0-3-0-0--0-0-0-|
|
|---------------------------||---------------------------||---------------------------||---------------------------||-5------------5------------||-3-0-0--0-0-0-3-0-0--0-0-0-|
|------------------------------|---------------------------||------------------------------|---------------------------||------------------------------|---------------------------||------------------------------|---------------------------||-5--------------------5h7-(7)-|-5------------5------------||-3-0-0--0-0-0-3-0-5-0---------|-3-0-0--0-0-0-3-0-0--0-0-0-|
|
|------------------------------|---------------------------||------------------------------|---------------------------||------------------------------|---------------------------||------------------------------|---------------------------||-5--------------------5h7-(7)-|-5------------5------------||-3-0-0--0-0-0-3-0-5-0---------|-3-0-0--0-0-0-3-0-0--0-0-0-|
|---------------------------|---------------------------||---------------------------|---------------------------||---------------------------|---------------------------||---------------------------|---------------------------||-5------------5------------|-5------------5------------||-3-0-0--0-0-0-3-0-0--0-0-0-|-3-0-0--0-0-0-3-0-0--0-0-0-|
|
|---------------------------|---------------------------||---------------------------|---------------------------||---------------------------|---------------------------||---------------------------|---------------------------||-5------------5------------|-5------------5------------||-3-0-0--0-0-0-3-0-0--0-0-0-|-3-0-0--0-0-0-3-0-0--0-0-0-|
|-----------------------------||-----------------------------||-----------------------------||-----------------------------||-5--------------------5h7-7\-||-3-0-0--0-0-0-3-0-5-0--------|
|
|-----------------------------||-----------------------------||-----------------------------||-----------------------------||-5--------------------5h7-7\-||-3-0-0--0-0-0-3-0-5-0--------|
Pre-Chorus|---------------|---------------|---------------||---------------|---------------|---------------||-7-7-(7)\------|---------------|-7-7-(7)\------||-7-7-(7)\------|-7-7-(7)\------|-7-7-(7)\------||-5-5-(5)\------|-7-7-(7)\------|-5-5-(5)\------||---------------|-5-5-(5)\------|---------------|
|
|---------------|---------------|---------------||---------------|---------------|---------------||-7-7-(7)\------|---------------|-7-7-(7)\------||-7-7-(7)\------|-7-7-(7)\------|-7-7-(7)\------||-5-5-(5)\------|-7-7-(7)\------|-5-5-(5)\------||---------------|-5-5-(5)\------|---------------|
Chorus|-------------------||----------|-3----||-------------------||----------|-3----||-------------------||----------|-0----||-7-7-(7)\------4-5-||-2--------|-0----||-7-7-(7)\--2---4-5-||-2--------|------||-5-5-(5)\----3-2-3-||-0--------|-3----|
|
|-------------------||----------|------||-------------------||----------|------||-------------------||----------|------||-7-7-(7)\------4-5-||-2--------|-5----||-7-7-(7)\--2---4-5-||-2--------|-5----||-5-5-(5)\----3-2-3-||-0--------|-3----|
|----------|-------------------------|----------|-3----||-2--------|-------------------------|----------|-3----||-2--------|-------------------------|----------|-0----||-2--------|-7-5-(5)-2-(2)-5-5p2-----|-2--------|------||-0--------|-7-5-(5)-2-(2)-------5p2-|-2--------|------||----------|-5-3-(3)-0-(0)-----------|-0--------|-3----|
|
|----------|-------------------------|----------|-3----||-2--------|-------------------------|----------|-3----||-2--------|-------------------------|----------|-0----||-2--------|-7-5-(5)-2-(2)-5-5p2-----|-2--------|------||-0--------|-7-5-(5)-2-(2)-------5p2-|-2--------|------||----------|-5-3-(3)-0-(0)-----------|-0--------|-3----|
1.|----------|---------------------||-2--------|---------------------||-2--------|----------------7-7--||-2--------|-7-5-(5)-2-(2)--7-7--||-0--------|-7-5-(5)-2-(2)--5-5--||----------|-5-3-(3)-0-(0)-------|
|
|----------|---------------------||-2--------|---------------------||-2--------|----------------7-7--||-2--------|-7-5-(5)-2-(2)--7-7--||-0--------|-7-5-(5)-2-(2)--5-5--||----------|-5-3-(3)-0-(0)-------|
|---------------------------|-----------------------------||---------------------------|-----------------------------||---------------------------|-----------------------------||---------------------------|-----------------------------||-5------------5------------|-5------------5--------------||-3-0-0--0-0-0-3-0-0--0-0-0-|-3-0-0--0-0-0-3-0-0--0-0-0---|
|
|---------------------------|-----------------------------||---------------------------|-----------------------------||---------------------------|-----------------------------||---------------------------|-----------------------------||-5------------5------------|-5------------5--------------||-3-0-0--0-0-0-3-0-0--0-0-0-|-3-0-0--0-0-0-3-0-0--0-0-0---|
|---------------------------|-------------------------------|||---------------------------|------------------------------o|||---------------------------|-------------------------------|||---------------------------|-------------------------------|||-5------------5------------|-5--------------------5h7-(7)-o|||-3-0-0--0-0-0-3-0-0--0-0-0-|-3-0-0--0-0-0-3-0-5-0----------||
|
|---------------------------|-------------------------------|||---------------------------|------------------------------o|||---------------------------|-------------------------------|||---------------------------|-------------------------------|||-5------------5------------|-5--------------------5h7-(7)-o|||-3-0-0--0-0-0-3-0-0--0-0-0-|-3-0-0--0-0-0-3-0-5-0----------||
2.|--------------------|------------------||--------------------|------------------||----------------7-7-|------------------||-7-5-(5)-2-(2)--7-7-|-7-5-(5)-2-(2)----||-7-5-(5)-2-(2)--5-5-|-7-5-(5)-2-(2)----||-5-3-(3)-0-(0)------|-5-3-(3)-0-(0)----|
|
|--------------------|------------------||--------------------|------------------||----------------7-7-|------------------||-7-5-(5)-2-(2)--7-7-|-7-5-(5)-2-(2)----||-7-5-(5)-2-(2)--5-5-|-7-5-(5)-2-(2)----||-5-3-(3)-0-(0)------|-5-3-(3)-0-(0)----|
3rd Verse|----------|----------|----------|------||----------|----------|----------|------||----------|-7--------|-2--------|-9----||-5--------|-7--------|-2--------|-9----||-5--------|-5--------|-0--------|-7----||-3--------|----------|----------|------|
|
|-3--------|----------|----------|------||-3--------|-3--------|----------|------||-0--------|-2--------|-2--------|------||----------|-0--------|-2--------|-2----||----------|----------|-0--------|-2----||-3--------|----------|----------|-0----|
|-3--------|----------|----------||-3--------|-3--------|----------||-0--------|-2--------|-2--------||----------|-0--------|-2--------||----------|----------|-0--------||-3--------|----------|----------|
|
|-3--------|----------|----------||-3--------|-3--------|----------||-0--------|-2--------|-2--------||----------|-0--------|-2--------||----------|----------|-0--------||-3--------|----------|----------|
|---------------------------------|-----------|-----|||---------------------------------|-----------|-----|||---------------------------------|-----------|-----|||-4-4-4-4-(4)-4-4-4-4-4-4-(4)-4-4-|-4\--------|-----|||-2-2-2-2-(2)-2-2-2-2-2-2-(2)-2-2-|-2\--------|-----|||---------------------------------|-----------|-----||
|
|---------------------------------|-----------|-----|||---------------------------------|-----------|-----|||---------------------------------|-----------|-----|||-4-4-4-4-(4)-4-4-4-4-4-4-(4)-4-4-|-4\--------|-----|||-2-2-2-2-(2)-2-2-2-2-2-2-(2)-2-2-|-2\--------|-----|||---------------------------------|-----------|-----||
Guitar Solo / | ~~ ~~|-24---(24)-(24)----------------------|--------------------------------------------------||----------------------20----------19-|-17-19----17--------------------------------19p17-||-------------------------------------|-------20----20-17-19p17-19p17-------17-----------||-------------------------------------|-------------------------------19-19--------------||-------------------------------------|--------------------------------------------------||-------------------------------------|--------------------------------------------------|
|
|-------------------------------------|--------------------------------------------------||-------------------------------------|--------------------------------------------------||-------------------------------------|--------------------------------------------------||--5--------------------5-------------|--5-----------------------------------------------||--3-0---0-------0-0-0--3-0-0--0-0--0-|--3-----0--0-----0--0--0--3--0--5--0--3-0-0--0----||-------------------------------------|--------------------------------------------------|
|--------------------------------------------------||-19p17----17--------------------------------------||-------19----19-17-19p17-19p17----19-17h18----17--||-------------------------------19----------19-----||--------------------------------------------------||--------------------------------------------------|
|
|--------------------------------------------------||--------------------------------------------------||--------------------------------------------------||--5-----------------------5-----------------------||--3-----0--0-----0--0--0--3-----0--0-----0--0--0--||--------------------------------------------------|
PM PM---| PM---||---------------------------------------------------|-/17------------/17--------------17---17-17\--------||---------------------------------------------------|-------------17---------------17--------------------||---------------------------------------------------|----------17---------------17--------------------12-||-19-17-19p17----19-19-17-17b17.5---19----17\-------|-------19---------------19--------------------------||-------------19-----------------------19-----------|----------------------------------------------------||---------------------------------------------------|----------------------------------------------------|
|
|---------------------------------------------------|----------------------------------------------------||---------------------------------------------------|----------------------------------------------------||---------------------------------------------------|----------------------------------------------------||--5------------------------------------------------|---5------------------------------5-----------------||--3-----0--0-----0--0--0--3------0--5--0--3--0-0-0-|---3-0--0-----------0-0--0--------3-0--0-----0-0--0-||---------------------------------------------------|----------------------------------------------------|
|-----------------------------------------------------||-----------------------------------------------------||-17----19----20----19----19-19-19b21-17--------------||----17----17----17----17----------------[19]---------||-----------------------------------------------------||-----------------------------------------------------|
|
|-----------------------------------------------------||-----------------------------------------------------||-----------------------------------------------------||--5--------------------------------------------------||--3-----0--0-----0--0--0--3--0--5-----0---3--0-0-0---||-----------------------------------------------------|
|---------------------------------||---------------------------------||---------------------------------||-5s7-7-7-5s7-7-7-5s7-7-7-5s7-7-7-||---------------------------------||---------------------------------|
|
|---------------------------------||---------------------------------||---------------------------------||-5---------------5---------------||-3---0-0---0-0-0-3---0-0---0-0-0-||---------------------------------|
~~|----------------------------19---18---17----------------||-----||-19-19p17----17-20p17-20p17----------------20-----(20)\-||-----||----------17--------------------------------------------||-----||--------------------------------------------------------||-----||--------------------------------------------------------||-----||--------------------------------------------------------||-----|
|
|--------------------------------------------------------||-----||--------------------------------------------------------||-----||--------------------------------------------------------||-----||--5-----------------------------------------------------||-----||--3--------0--0-----0--0--0--3-0----5----0--3-0-0---0---||-----||--------------------------------------------------------||-----|
|---------------------------|----------------------------||---------------------------|----------------------------||---------------------------|----------------------------||---------------------------|----------------------------||-5------------5------------|-5------------5-------------||-3-0-0--0-0-0-3-0-0--0-0-0-|-3-0-0--0-0-0-3-0-0--0-0-0--|
|
|---------------------------|----------------------------||---------------------------|----------------------------||---------------------------|----------------------------||---------------------------|----------------------------||-5------------5------------|-5------------5-------------||-3-0-0--0-0-0-3-0-0--0-0-0-|-3-0-0--0-0-0-3-0-0--0-0-0--|
|---------------------------|------------------------------||---------------------------|------------------------------||---------------------------|------------------------------||---------------------------|------------------------------||-5------------5------------|-5------------5---------------||-3-0-0--0-0-0-3-0-0--0-0-0-|-3-0-0--0-0-0-3-0-0--0-0-0----|
|
|---------------------------|------------------------------||---------------------------|------------------------------||---------------------------|------------------------------||---------------------------|------------------------------||-5------------5------------|-5------------5---------------||-3-0-0--0-0-0-3-0-0--0-0-0-|-3-0-0--0-0-0-3-0-0--0-0-0----|
Bridge|---------------------|---------------------||---------------------|---------------------||---------------------|---------------------||---------------------|-7-7-(7)-7-7-7-(7)-7-||-5-5-(5)-5-5---------|-5-5-(5)-5-5-5-(5)-5-||-3-3-(3)-3-3-2-(2)-0-|---------------------|
|
|---------------------|---------------------||---------------------|---------------------||---------------------|---------------------||---------------------|-7-7-(7)-7-7-7-(7)-7-||-5-5-(5)-5-5---------|-5-5-(5)-5-5-5-(5)-5-||-3-3-(3)-3-3-2-(2)-0-|---------------------|
|-----------------------------|---------------------||-----------------------------|---------------------||-----------------------------|-9-7-(7)-6-4-6-(6)-7-||-7-7-7-(7)-7-7-7-7-7-(7)-7-7-|-9-7-(7)-6-4-6-(6)-7-||-7-7-7-(7)-7-7-7-7-7-(7)-7-7-|-7-5-(5)-4-2-4-(4)-5-||-5-5-5-(5)-5-5-5-5-5-(5)-5-5-|---------------------|
|
|-----------------------------|---------------------||-----------------------------|---------------------||-----------------------------|-9-7-(7)-6-4-6-(6)-7-||-7-7-7-(7)-7-7-7-7-7-(7)-7-7-|-9-7-(7)-6-4-6-(6)-7-||-7-7-7-(7)-7-7-7-7-7-(7)-7-7-|-7-5-(5)-4-2-4-(4)-5-||-5-5-5-(5)-5-5-5-5-5-(5)-5-5-|---------------------|
|---------------------|---------------------||---------------------|---------------------||---------------------|---------------------||---------------------|-7-7-(7)-7-7-7-(7)-7-||-5-5-(5)-5-5---------|-5-5-(5)-5-5-5-(5)-5-||-3-3-(3)-3-3-2-(2)-0-|---------------------|
|
|---------------------|---------------------||---------------------|---------------------||---------------------|---------------------||---------------------|-7-7-(7)-7-7-7-(7)-7-||-5-5-(5)-5-5---------|-5-5-(5)-5-5-5-(5)-5-||-3-3-(3)-3-3-2-(2)-0-|---------------------|
|-----------------------------|------------------------------||-----------------------------|------------------------------||-----------------------------|-9-9-9-(9)-9-9-9-9-9-(9)-9-9--||-7-7-7-(7)-7-7-7-7-7-(7)-7-7-|-9-9-9-(9)-9-9-9-9-9-(9)-9-9--||-7-7-7-(7)-7-7-7-7-7-(7)-7-7-|-7-7-7-(7)-7-7-7-7-7-(7)-7-7--||-5-5-5-(5)-5-5-5-5-5-(5)-5-5-|-0----------------------------|
|
|-----------------------------|------------------------------||-----------------------------|------------------------------||-----------------------------|-9-9-9-(9)-9-9-9-9-9-(9)-9-9--||-7-7-7-(7)-7-7-7-7-7-(7)-7-7-|-9-9-9-(9)-9-9-9-9-9-(9)-9-9--||-7-7-7-(7)-7-7-7-7-7-(7)-7-7-|-7-7-7-(7)-7-7-7-7-7-(7)-7-7--||-5-5-5-(5)-5-5-5-5-5-(5)-5-5-|-0----------------------------|
|------------||----------|-3--------|------||------------||----------|-3--------|-2----||-9----------||----------|-0--------|-2----||-9------9\--||-2--------|----------|-2----||-7------7\--||-2--------|----------|-0----||------------||-0--------|-3--------|------|
|
|------------||----------|----------|------||------------||----------|----------|------||------------||----------|----------|------||-9----------||-9--------|----------|-2----||-7----------||-7--------|-5--------|-0----||------------||----------|-3--------|------|
|-------------------------|----------|-3--------|------||-------------------------|----------|-3--------|-2----||-------------------------|----------|-0--------|-2----||-7-5-(5)-2-(2)-5-5p2-----|-2--------|----------|-2----||-7-5-(5)-2-(2)-------5p2-|-2--------|----------|-0----||-5-3-(3)-0-(0)-----------|-0--------|-3--------|------|
|
|-------------------------|----------|-3--------|------||-------------------------|----------|-3--------|-2----||-------------------------|----------|-0--------|-2----||-7-5-(5)-2-(2)-5-5p2-----|-2--------|----------|-2----||-7-5-(5)-2-(2)-------5p2-|-2--------|----------|-0----||-5-3-(3)-0-(0)-----------|-0--------|-3--------|------|
|--------------------|--------------------||--------------------|--------------------||----------------7-7-|--------------------||-7-5-(5)-2-(2)--7-7-|-7-5-(5)-2-(2)------||-7-5-(5)-2-(2)--5-5-|-7-5-(5)-2-(2)------||-5-3-(3)-0-(0)------|-5-3-(3)-0-(0)-12\--|
|
|--------------------|--------------------||--------------------|--------------------||----------------7-7-|--------------------||-7-5-(5)-2-(2)--7-7-|-7-5-(5)-2-(2)------||-7-5-(5)-2-(2)--5-5-|-7-5-(5)-2-(2)--2---||-5-3-(3)-0-(0)------|-5-3-(3)-0-(0)--0---|
|-------------------------|--------------------------||-------------------------|--------------------------||-------------------------|--------------------------||-7-5-(5)-5---------------|-7-5-(5)-5----------------||-7-5-(5)-5-2-------------|-7-5-(5)-5-2--------------||-5-3-(3)-3-0-0-0-0-0-0-0-|-5-3-(3)-3-0-0-0-0-0-0-0--|
|
|-------------------------|--------------------------||-------------------------|--------------------------||-----------9-------------|-----------9--------------||-7-5-(5)-5-9-------------|-7-5-(5)-5-9--------------||-7-5-(5)-5-7-------------|-7-5-(5)-5-7--------------||-5-3-(3)-3---------------|-5-3-(3)-3----------------|
|-------------------------|---------------------------||-------------------------|---------------------------||-------------------------|-7-7-7-7---7-7-7-7-7-7-7-7-||-7-5-(5)-5---------------|-7-7-7-7---7-7-7-7-7-7-7-7-||-7-5-(5)-5-2-------------|-5-5-5-5---5-5-5-5-5-5-5-5-||-5-3-(3)-3-0-0-0-0-0-0-0-|---------------------------|
|
|-------------------------|---------------------------||-------------------------|---------------------------||-----------9-------------|-7-7-7-7---7-7-7-7-7-7-7-7-||-7-5-(5)-5-9-------------|-7-7-7-7---7-7-7-7-7-7-7-7-||-7-5-(5)-5-7-------------|-5-5-5-5---5-5-5-5-5-5-5-5-||-5-3-(3)-3---------------|---------------------------|
|------------------|--------*||------------------|--------*||------------------|--------*||-7-5-(5)-2-(2)----|-(2)----*||-7-5-(5)-2-(2)----|-(2)----*||-5-3-(3)-0-(0)----|-(0)----*|
|
|------------------|--------*||------------------|--------*||------------------|--------*||-7-5-(5)-2-(2)----|-(2)----*||-7-5-(5)-2-(2)----|-(2)----*||-5-3-(3)-0-(0)----|-(0)----*|
Tap to rate this tab
 
# A B C D E F G H I J K L M N O P Q R S T U V W X Y Z