Skillet - Rippin Me Off tab

Artist: Skillet
Song: Rippin' Me Off
Album: Alien Youth(2001)
Tuning: Drop B

Tabbed by Scentapp
 
Intro (0:28)

C#|----------------------------|G#|----------------------------|E |----------------------------|B |--5--5--5--5--0--0--0--0----|F#|--5--5--5--5--0--0--0--0----|B |--5--5--5--5--0--0--0--0----|
----------------------------|----------------------------|----------------------------|----------------------------|----------------------------|----------------------------|--1--1--1--1--x--x--1--1----|--5--5--5--5--0--0--0--0----|--1--1--1--1--x--x--1--1----|--5--5--5--5--0--0--0--0----|--1--1--1--1--x--x--1--1----|--5--5--5--5--0--0--0--0----|
----------------------------|----------------------------|----------------------------|----------------------------|----------------------------|----------------------------|--1--1--1--1--x--x--1--1----|--5--5--5--5--0--0--0--0----|--1--1--1--1--x--x--1--1----|--5--5--5--5--0--0--0--0----|--1--1--1--1--x--x--1--1----|--5--5--5--5--0--0--0--0----|
----------------------------|----------------------------|----------------------------|----------------------------|----------------------------|----------------------------|--1--1--1--1--x--x--1--1----|--5--5--5--5--0--0--0--0----|--1--1--1--1--x--x--1--1----|--5--5--5--5--0--0--0--0----|--1--1--1--1--x--x--1--1----|--5--5--5--5--0--0--0--0----|
Verse (0:43)----------------------------|----------------------------|----------------------------|----------------------------|----------------------------|----------------------------|--1--1--1--1--x--x--1--1----|--5--5----------------------|--1--1--1--1--x--x--1--1----|--5--5----------------------|--1--1--1--1--x--x--1--1----|--5--5----------------------|
0:49
----------------------------|----------------------------|----------------------------|--0--0----------------------|--0--0----------------------|--0--0----------------------|
1:03
----------------------------------------------------|----------------------------------------------------|----------------------------------------------------|--0-----0-----x--x--x-----x--x--x-----x--x--x--x----|--0-----0-----x--x--x-----x--x--x-----x--x--x--x----|--0-----0-----x--x--x-----x--x--x-----x--x--x--x----|
----------------------------------------------------|----------------------------------------------------|----------------------------------------------------|--0-----0-----x--x--x-----x--x--x-----x--x--x--x----|--0-----0-----x--x--x-----x--x--x-----x--x--x--x----|--0-----0-----x--x--x-----x--x--x-----x--x--x--x----|
----------------------------------------------------|----------------------------------------------------|----------------------------------------------------|--0-----0-----x--x--x-----x--x--x-----x--x--x--x----|--0-----0-----x--x--x-----x--x--x-----x--x--x--x----|--0-----0-----x--x--x-----x--x--x-----x--x--x--x----|
----------------------------------------------------|----------------------------------------------------|----------------------------------------------------|--0-----0-----x--x--x-----x--x--x-----x--x--x--x----|--0-----0-----x--x--x-----x--x--x-----x--x--x--x----|--0-----0-----x--x--x-----x--x--x-----x--x--x--x----|
Chorus (1:23)
|----------------------------|----------------------------||----------------------------|----------------------------||----------------------------|----------------------------||--1--1--1--1--1--1--1--1----|--10-10-10-10-10-10-10-10---||--1--1--1--1--1--1--1--1----|--10-10-10-10-10-10-10-10---||--1--1--1--1--1--1--1--1----|--10-10-10-10-10-10-10-10---|
----------------------------|----------------------------|-----------------5--4-------|-----------------5--4-------|----------------------------|----------------------------|--0--0--0--0----------------|--0--0--0--0----------------|--0--0--0--0----------------|--0--0--0--0----------------|--0--0--0--0----------------|--0--0--0--0----------------|
----------------------------|----------------------------|----------------------------|----------------------------|----------------------------|----------------------------|--1--1--1--1--1--1--1--1----|--10-10-10-10-10-10-10-10---|--1--1--1--1--1--1--1--1----|--10-10-10-10-10-10-10-10---|--1--1--1--1--1--1--1--1----|--10-10-10-10-10-10-10-10---|
----------------------------|----------------------------|-----------------5--4-------|-----------------5--4-------|----------------------------|----------------------------|--0--0--0--0----------------|--0--0--0--0----------------|--0--0--0--0----------------|--0--0--0--0----------------|--0--0--0--0----------------|--0--0--0--0----------------|
----------------------------|----------------------------|----------------------------|----------------------------|----------------------------|----------------------------|--1--1--1--1--1--1--1--1----|--10-10-10-10-10-10-10-10---|--1--1--1--1--1--1--1--1----|--10-10-10-10-10-10-10-10---|--1--1--1--1--1--1--1--1----|--10-10-10-10-10-10-10-10---|
----------------------------|----------------------------|-----------------5--4-------|-----------------5--4-------|----------------------------|----------------------------|--0--0--0--0----------------|--0--0--0--0----------------|--0--0--0--0----------------|--0--0--0--0----------------|--0--0--0--0----------------|--0--0--0--0----------------|
----------------------------|----------------------------|----------------------------|----------------------------|----------------------------|----------------------------|--1--1--1--1--1--1--1--1----|--10-10-10-10-10-10-10-10---|--1--1--1--1--1--1--1--1----|--10-10-10-10-10-10-10-10---|--1--1--1--1--1--1--1--1----|--10-10-10-10-10-10-10-10---|
----------------------------|----------------------------|-----------------5--4-------|-----------------5--4-------|----------------------------|----------------------------|--0--0--0--0----------------|--0--0--0--0----------------|--0--0--0--0----------------|--0--0--0--0----------------|--0--0--0--0----------------|--0--0--0--0----------------|
----------------------------|----------------------------|-----------------5--4-------|-----------------5--4-------|----------------------------|----------------------------|--0--0--0--0----------------|--0--0--0--0----------------|--0--0--0--0----------------|--0--0--0--0----------------|--0--0--0--0----------------|--0--0--0--0----------------|
1:55
----------------------------|----------------------------|----------------------------|----------------------------|----------------------------|----------------------------|--5--5--5--5--0--0--0--0----|--1--1--1--1--x--x--1--1----|--5--5--5--5--0--0--0--0----|--1--1--1--1--x--x--1--1----|--5--5--5--5--0--0--0--0----|--1--1--1--1--x--x--1--1----|
----------------------------|----------------------------|----------------------------|----------------------------|----------------------------|----------------------------|--5--5--5--5--0--0--0--0----|--1--1--1--1--x--x--1--1----|--5--5--5--5--0--0--0--0----|--1--1--1--1--x--x--1--1----|--5--5--5--5--0--0--0--0----|--1--1--1--1--x--x--1--1----|
----------------------------|----------------------------|----------------------------|----------------------------|----------------------------|----------------------------|--5--5--5--5--0--0--0--0----|--1--1--1--1--x--x--1--1----|--5--5--5--5--0--0--0--0----|--1--1--1--1--x--x--1--1----|--5--5--5--5--0--0--0--0----|--1--1--1--1--x--x--1--1----|
----------------------------|----------------------------|----------------------------|----------------------------|----------------------------|----------------------------|--5--5--5--5--0--0--0--0----|--1--1--1--1--x--x--1--1----|--5--5--5--5--0--0--0--0----|--1--1--1--1--x--x--1--1----|--5--5--5--5--0--0--0--0----|--1--1--1--1--x--x--1--1----|
Verse (2:08) Chorus (2:29)
|----------------------------|----------------------------||----------------------------|----------------------------||----------------------------|----------------------------||--1--1--1--1--1--1--1--1----|--10-10-10-10-10-10-10-10---||--1--1--1--1--1--1--1--1----|--10-10-10-10-10-10-10-10---||--1--1--1--1--1--1--1--1----|--10-10-10-10-10-10-10-10---|
----------------------------|----------------------------|-----------------5--4-------|-----------------5--4-------|----------------------------|----------------------------|--0--0--0--0----------------|--0--0--0--0----------------|--0--0--0--0----------------|--0--0--0--0----------------|--0--0--0--0----------------|--0--0--0--0----------------|
----------------------------|----------------------------|----------------------------|----------------------------|----------------------------|----------------------------|--1--1--1--1--1--1--1--1----|--10-10-10-10-10-10-10-10---|--1--1--1--1--1--1--1--1----|--10-10-10-10-10-10-10-10---|--1--1--1--1--1--1--1--1----|--10-10-10-10-10-10-10-10---|
----------------------------|----------------------------|-----------------5--4-------|-----------------5--4-------|----------------------------|----------------------------|--0--0--0--0----------------|--0--0--0--0----------------|--0--0--0--0----------------|--0--0--0--0----------------|--0--0--0--0----------------|--0--0--0--0----------------|
----------------------------|----------------------------|----------------------------|----------------------------|----------------------------|----------------------------|--1--1--1--1--1--1--1--1----|--10-10-10-10-10-10-10-10---|--1--1--1--1--1--1--1--1----|--10-10-10-10-10-10-10-10---|--1--1--1--1--1--1--1--1----|--10-10-10-10-10-10-10-10---|
----------------------------|----------------------------|-----------------5--4-------|-----------------5--4-------|----------------------------|----------------------------|--0--0--0--0----------------|--0--0--0--0----------------|--0--0--0--0----------------|--0--0--0--0----------------|--0--0--0--0----------------|--0--0--0--0----------------|
----------------------------|----------------------------|----------------------------|----------------------------|----------------------------|----------------------------|--1--1--1--1--1--1--1--1----|--10-10-10-10-10-10-10-10---|--1--1--1--1--1--1--1--1----|--10-10-10-10-10-10-10-10---|--1--1--1--1--1--1--1--1----|--10-10-10-10-10-10-10-10---|
----------------------------|----------------------------|-----------------5--4-------|-----------------5--4-------|----------------------------|----------------------------|--0--0--0--0----------------|--0--0--0--0----------------|--0--0--0--0----------------|--0--0--0--0----------------|--0--0--0--0----------------|--0--0--0--0----------------|
----------------------------|----------------------------|-----------------5--4-------|-----------------5--4-------|----------------------------|----------------------------|--0--0--0--0----------------|--0--0--0--0----------------|--0--0--0--0----------------|--0--0--0--0----------------|--0--0--0--0----------------|--0--0--0--0----------------|
Solo (3:07) Meanwhile, guitar two playing solo
----------------------------------------------------|----------------------------------------------------|----------------------------------------------------|--0-----0-----x--x--x-----x--x--x-----x--x--x--x----|--0-----0-----x--x--x-----x--x--x-----x--x--x--x----|--0-----0-----x--x--x-----x--x--x-----x--x--x--x----|
----------------------------------------------------|----------------------------------------------------|----------------------------------------------------|--0-----0-----x--x--x-----x--x--x-----x--x--x--x----|--0-----0-----x--x--x-----x--x--x-----x--x--x--x----|--0-----0-----x--x--x-----x--x--x-----x--x--x--x----|
----------------------------------------------------|----------------------------------------------------|----------------------------------------------------|--0-----0-----x--x--x-----x--x--x-----x--x--x--x----|--0-----0-----x--x--x-----x--x--x-----x--x--x--x----|--0-----0-----x--x--x-----x--x--x-----x--x--x--x----|
----------------------------------------------------|----------------------------------------------------|----------------------------------------------------|--0-----0-----x--x--x-----x--x--x-----x--x--x--x----|--0-----0-----x--x--x-----x--x--x-----x--x--x--x----|--0-----0-----x--x--x-----x--x--x-----x--x--x--x----|
----------------------------------------------------|----------------------------------------------------|----------------------------------------------------|--0-----0-----x--x--x-----x--x--x-----x--x--x--x----|--0-----0-----x--x--x-----x--x--x-----x--x--x--x----|--0-----0-----x--x--x-----x--x--x-----x--x--x--x----|
----------------------------------------------------|----------------------------------------------------|----------------------------------------------------|--0-----0-----x--x--x-----x--x--x-----x--x--x--x----|--0-----0-----x--x--x-----x--x--x-----x--x--x--x----|--0-----0-----x--x--x-----x--x--x-----x--x--x--x----|
----------------------------------------------------|----------------------------------------------------|----------------------------------------------------|--0-----0-----x--x--x-----x--x--x-----x--x--x--x----|--0-----0-----x--x--x-----x--x--x-----x--x--x--x----|--0-----0-----x--x--x-----x--x--x-----x--x--x--x----|
----------------------------------------------------|----------------------------------------------------|----------------------------------------------------|--0-----0-----x--x--x-----x--x--x-----x--x--x--x----|--0-----0-----x--x--x-----x--x--x-----x--x--x--x----|--0-----0-----x--x--x-----x--x--x-----x--x--x--x----|
3:21
|----------------------------|----------------------------||----------------------------|----------------------------||----------------------------|----------------------------||--5--5--5--5--0--0--0--0----|--1--1--1--1--x--x--1--1----||--5--5--5--5--0--0--0--0----|--1--1--1--1--x--x--1--1----||--5--5--5--5--0--0--0--0----|--1--1--1--1--x--x--1--1----|
----------------------------|----------------------------|----------------------------|----------------------------|----------------------------|----------------------------|--5--5--5--5--0--0--0--0----|--1--1--1--1--x--x--1--1----|--5--5--5--5--0--0--0--0----|--1--1--1--1--x--x--1--1----|--5--5--5--5--0--0--0--0----|--1--1--1--1--x--x--1--1----|
----------------------------|----------------------------|----------------------------|----------------------------|----------------------------|----------------------------|--5--5--5--5--0--0--0--0----|--1--1--1--1--x--x--1--1----|--5--5--5--5--0--0--0--0----|--1--1--1--1--x--x--1--1----|--5--5--5--5--0--0--0--0----|--1--1--1--1--x--x--1--1----|
----------------------------|----------------------------|----------------------------|----------------------------|----------------------------|----------------------------|--5--5--5--5--0--0--0--0----|--1--1--1--1--x--x--1--1----|--5--5--5--5--0--0--0--0----|--1--1--1--1--x--x--1--1----|--5--5--5--5--0--0--0--0----|--1--1--1--1--x--x--1--1----|
Break (3:35)
|----------|----------|----------|----------|----------|----------|----------|----------||----------|----------|----------|----------|----------|----------|----------|----------||----------|----------|----------|----------|----------|----------|----------|----------||--5s-15s--|--5s-15s--|--5s-15s--|--5s-15s--|--5s-15s--|--5s-15s--|--5s-15s--|--5s-15s--||--5s-15s--|--5s-15s--|--5s-15s--|--5s-15s--|--5s-15s--|--5s-15s--|--5s-15s--|--5s-15s--||--5s-15s--|--5s-15s--|--5s-15s--|--5s-15s--|--5s-15s--|--5s-15s--|--5s-15s--|--5s-15s--|
Chorus (3:56)
|----------------------------|----------------------------||----------------------------|----------------------------||----------------------------|----------------------------||--1--1--1--1--1--1--1--1----|--10-10-10-10-10-10-10-10---||--1--1--1--1--1--1--1--1----|--10-10-10-10-10-10-10-10---||--1--1--1--1--1--1--1--1----|--10-10-10-10-10-10-10-10---|
----------------------------|----------------------------|-----------------5--4-------|-----------------5--4-------|----------------------------|----------------------------|--0--0--0--0----------------|--0--0--0--0----------------|--0--0--0--0----------------|--0--0--0--0----------------|--0--0--0--0----------------|--0--0--0--0----------------|
----------------------------|----------------------------|----------------------------|----------------------------|----------------------------|----------------------------|--1--1--1--1--1--1--1--1----|--10-10-10-10-10-10-10-10---|--1--1--1--1--1--1--1--1----|--10-10-10-10-10-10-10-10---|--1--1--1--1--1--1--1--1----|--10-10-10-10-10-10-10-10---|
----------------------------|----------------------------|-----------------5--4-------|-----------------5--4-------|----------------------------|----------------------------|--0--0--0--0----------------|--0--0--0--0----------------|--0--0--0--0----------------|--0--0--0--0----------------|--0--0--0--0----------------|--0--0--0--0----------------|
----------------------------|----------------------------|----------------------------|----------------------------|----------------------------|----------------------------|--1--1--1--1--1--1--1--1----|--10-10-10-10-10-10-10-10---|--1--1--1--1--1--1--1--1----|--10-10-10-10-10-10-10-10---|--1--1--1--1--1--1--1--1----|--10-10-10-10-10-10-10-10---|
----------------------------|----------------------------|-----------------5--4-------|-----------------5--4-------|----------------------------|----------------------------|--0--0--0--0----------------|--0--0--0--0----------------|--0--0--0--0----------------|--0--0--0--0----------------|--0--0--0--0----------------|--0--0--0--0----------------|
----------------------------|----------------------------|----------------------------|----------------------------|----------------------------|----------------------------|--1--1--1--1--1--1--1--1----|--10-10-10-10-10-10-10-10---|--1--1--1--1--1--1--1--1----|--10-10-10-10-10-10-10-10---|--1--1--1--1--1--1--1--1----|--10-10-10-10-10-10-10-10---|
----------------------------|----------------------------|-----------------5--4-------|-----------------5--4-------|----------------------------|----------------------------|--0--0--0--0----------------|--0--0--0--0----------------|--0--0--0--0----------------|--0--0--0--0----------------|--0--0--0--0----------------|--0--0--0--0----------------|
|----------------------------|----------------------------||----------------------------|----------------------------||----------------------------|----------------------------||--1--1--1--1--1--1--1--1----|--10-10-10-10-10-10-10-10---||--1--1--1--1--1--1--1--1----|--10-10-10-10-10-10-10-10---||--1--1--1--1--1--1--1--1----|--10-10-10-10-10-10-10-10---|
----------------------------|----------------------------|-----------------5--4-------|-----------------5--4-------|----------------------------|----------------------------|--0--0--0--0----------------|--0--0--0--0----------------|--0--0--0--0----------------|--0--0--0--0----------------|--0--0--0--0----------------|--0--0--0--0----------------|
----------------------------|----------------------------|----------------------------|----------------------------|----------------------------|----------------------------|--1--1--1--1--1--1--1--1----|--10-10-10-10-10-10-10-10---|--1--1--1--1--1--1--1--1----|--10-10-10-10-10-10-10-10---|--1--1--1--1--1--1--1--1----|--10-10-10-10-10-10-10-10---|
----------------------------|----------------------------|-----------------5--4-------|-----------------5--4-------|----------------------------|----------------------------|--0--0--0--0----------------|--0--0--0--0----------------|--0--0--0--0----------------|--0--0--0--0----------------|--0--0--0--0----------------|--0--0--0--0----------------|
----------------------------|----------------------------|----------------------------|----------------------------|----------------------------|----------------------------|--1--1--1--1--1--1--1--1----|--10-10-10-10-10-10-10-10---|--1--1--1--1--1--1--1--1----|--10-10-10-10-10-10-10-10---|--1--1--1--1--1--1--1--1----|--10-10-10-10-10-10-10-10---|
----------------------------|----------------------------|-----------------5--4-------|-----------------5--4-------|----------------------------|----------------------------|--0--0--0--0----------------|--0--0--0--0----------------|--0--0--0--0----------------|--0--0--0--0----------------|--0--0--0--0----------------|--0--0--0--0----------------|
----------------------------|----------------------------|----------------------------|----------------------------|----------------------------|----------------------------|--1--1--1--1--1--1--1--1----|--10-10-10-10-10-10-10-10---|--1--1--1--1--1--1--1--1----|--10-10-10-10-10-10-10-10---|--1--1--1--1--1--1--1--1----|--10-10-10-10-10-10-10-10---|
----------------------------|----------------------------|-----------------5--4-------|-----------------5--4-------|----------------------------|----------------------------|--0--0--0--0----------------|--0--0--0--0----------------|--0--0--0--0----------------|--0--0--0--0----------------|--0--0--0--0----------------|--0--0--0--0----------------|
Tap to rate this tab
 
# A B C D E F G H I J K L M N O P Q R S T U V W X Y Z