Not Gonna Die tab ver. 2 with lyrics by Skillet - Easy chords and tabs for guitar

Skillet – Not Gonna Die tab ver. 2

Skillet- Not Gonna Die Guitar Tabs
Tuning: Drop C# (C#,G#,C#,F#,A#,D#)

INTRO:|-----------------------------------------------------------------||-----------------------------------------------------------------||-----------------------------------------------------------------||-0-0-0-0-0-0-0-0-2-2-2-2-2-2-2-2-4-4-4-4-4-4-4-4-7-7-7-7-7-7-7-7-||-0-0-0-0-0-0-0-0-2-2-2-2-2-2-2-2-4-4-4-4-4-4-4-4-7-7-7-7-7-7-7-7-||-0-0-0-0-0-0-0-0-2-2-2-2-2-2-2-2-4-4-4-4-4-4-4-4-7-7-7-7-7-7-7-7-|
|---------------------------------| |------------------| |---------------------------------| |------------------||---------------------------------| |------------------||---------------------------------| |------------------||-0-0-0-0-0-0-0-0-3-3-3-3-3-3-3-3-| |-44-44-44-44-7--2-|x2|-0-0-0-0-0-0-0-0-3-3-3-3-3-3-3-3-| |-44-44-44-44-7--2-||-0-0-0-0-0-0-0-0-3-3-3-3-3-3-3-3-| |-44-44-44-44-7--2-|
VERSE:|----------||----------||----------|x4|-44-44-44-||-44-44-44-||-44-44-44-|
|---------------------||---------------------||---------------------|x4|-44-44-44------------||-44-44-44--4-2-4-5-4-||-44-44-44------------| *-*-*-*-*
PRE-CHORUS:|-14-14-14-14-14-14-16~13-| (From the highest string Which is the Drop D# string)
CHORUS:|-----------------------------------------------------------------||-----------------------------------------------------------------||-----------------------------------------------------------------||-0-0-0-0-0-0-0-0-4-4-4-4-4-4-4-4-7-7-7-7-7-7-7-7-2-2-2-2-6-7-9-7-||-0-0-0-0-0-0-0-0-4-4-4-4-4-4-4-4-7-7-7-7-7-7-7-7-2-2-2-2-6-7-9-7-||-0-0-0-0-0-0-0-0-4-4-4-4-4-4-4-4-7-7-7-7-7-7-7-7-2-2-2-2-6-7-9-7-|
|-----------------------------------------------------------------||-----------------------------------------------------------------||-----------------------------------------------------------------||-0-0-0-0-0-0-0-0-4-4-4-4-4-4-4-4-7-7-7-7-7-7-7-7-2-2-2-2-2-2-2-2-||-0-0-0-0-0-0-0-0-4-4-4-4-4-4-4-4-7-7-7-7-7-7-7-7-2-2-2-2-2-2-2-2-||-0-0-0-0-0-0-0-0-4-4-4-4-4-4-4-4-7-7-7-7-7-7-7-7-2-2-2-2-2-2-2-2-|
|-----------||-----------||-----------||-4-4-4-4-4-||-4-4-4-4-4-||-4-4-4-4-4-|
POST CHORUS:|-----------------------------------------------------------------||-----------------------------------------------------------------||-----------------------------------------------------------------||-0-0-0-0-0-0-0-0-2-2-2-2-2-2-2-2-4-4-4-4-4-4-4-4-7-7-7-7-7-7-7-7-||-0-0-0-0-0-0-0-0-2-2-2-2-2-2-2-2-4-4-4-4-4-4-4-4-7-7-7-7-7-7-7-7-||-0-0-0-0-0-0-0-0-2-2-2-2-2-2-2-2-4-4-4-4-4-4-4-4-7-7-7-7-7-7-7-7-|
|---------------------------------||---------------------------------||---------------------------------||-0-0-0-0-0-0-0-0-3-3-3-3-3-3-3-3-||-0-0-0-0-0-0-0-0-3-3-3-3-3-3-3-3-||-0-0-0-0-0-0-0-0-3-3-3-3-3-3-3-3-|
VERSE:|----------||----------||----------|x4 |-44-44-44-||-44-44-44-||-44-44-44-|
|---------------------||---------------------||---------------------|x4|-44-44-44------------||-44-44-44--4-2-4-5-4-||-44-44-44------------| *-*-*-*-*
PRE-CHORUS: |-14-14-14-14-14-14-16~13-| (From the highest string Which is the Drop D# string)
CHORUS:|-----------------------------------------------------------------||-----------------------------------------------------------------||-----------------------------------------------------------------||-0-0-0-0-0-0-0-0-4-4-4-4-4-4-4-4-7-7-7-7-7-7-7-7-2-2-2-2-6-7-9-7-||-0-0-0-0-0-0-0-0-4-4-4-4-4-4-4-4-7-7-7-7-7-7-7-7-2-2-2-2-6-7-9-7-||-0-0-0-0-0-0-0-0-4-4-4-4-4-4-4-4-7-7-7-7-7-7-7-7-2-2-2-2-6-7-9-7-|
|-----------------------------------------------------------------||-----------------------------------------------------------------||-----------------------------------------------------------------||-0-0-0-0-0-0-0-0-4-4-4-4-4-4-4-4-7-7-7-7-7-7-7-7-2-2-2-2-2-2-2-2-||-0-0-0-0-0-0-0-0-4-4-4-4-4-4-4-4-7-7-7-7-7-7-7-7-2-2-2-2-2-2-2-2-||-0-0-0-0-0-0-0-0-4-4-4-4-4-4-4-4-7-7-7-7-7-7-7-7-2-2-2-2-2-2-2-2-|
|-----------------||-----------------||-----------------||-4-4-4-4-4-4-4-4-||-4-4-4-4-4-4-4-4-||-4-4-4-4-4-4-4-4-|
BRIDGE:|----------------------------------| |-----------------||----------------------------------| |-----------------||----------------------------------|x2 |-----------------||-0-0-0-0-2-2-2-2-4-4-444422222222-| |-0-0-0-0-3-3-3-3-||-0-0-0-0-2-2-2-2-4-4-444422222222-| |-0-0-0-0-3-3-3-3-||-0-0-0-0-2-2-2-2-4-4-444422222222-| |-0-0-0-0-3-3-3-3-| ************
|------------------| |-----------------||------------------| |-----------------||------------------| |-----------------||-44-44-44-44-7--2-| |-44-44-4--33--33-||-44-44-44-44-7--2-| |-44-44-4--33--33-||-44-44-44-44-7--2-| |-44-44-4--33--33-|
SOLO:|-----0-0-----------9-10-12-10-9----------------||-9b------9-10-12-----------------12-10-9-10-14~||-----------------------------------------------||-----------------------------------------------||-----------------------------------------------||-----------------------------------------------|
|---------9-10-12-10-9----------------10-12-14-12-10----------------12-14-15-||-9-10-12--------------12-10-10-12-14----------------14-12-12-14-15----------||----------------------------------------------------------------------------||----------------------------------------------------------------------------||----------------------------------------------------------------------------||----------------------------------------------------------------------------|
|-14-12-----------/19~17-19-19-21b~16-17-16-14---16-17-16-14-----||-------15-14-12~------------------------------17------------17--||----------------------------------------------------------------||----------------------------------------------------------------||----------------------------------------------------------------||----------------------------------------------------------------|
|-16-17-16-14---------------------------------------------------------17----||-------------17-14-17-19~-----------------------------------------19----19-||-------------------------18-16-14----14-16-18-16-14-------16----18---------||----------------------------------16----------------16-16----16------------||---------------------------------------------------------------------------||---------------------------------------------------------------------------|
|----------14-16-17/21b~---------14-17--------14-16-17/21b-||-----------------------------14-------14------------------||-16-14--------------------14-------------14b--------------||-------16--------------16---------------------------------||----------------------------------------------------------||----------------------------------------------------------|
Rhythm Guitar (During The Solo):|-------------------------------------------------||-------------------------------------------------||-4-4-4-4-7-7-7-7-----------------4-4-4-4-7-7-7-7-||-4-4-4-4-7-7-7-7-4-4-4-4-3-3-3-3-4-4-4-4-7-7-7-7-||-2-2-2-2-5-5-5-5-4-4-4-4-3-3-3-3-2-2-2-2-5-5-5-5-||-----------------4-4-4-4-3-3-3-3-----------------|
|------------------------------||------------------------------||------------------------------||-44-44-44-44-7--2-44-44-44-44-||-44-44-44-44-7--2-44-44-44-44-||-44-44-44-44-7--2-44-44-44-44-|
CHORUS:|-----------------------------------------------------------------||-----------------------------------------------------------------||-----------------------------------------------------------------||-0-0-0-0-0-0-0-0-4-4-4-4-4-4-4-4-7-7-7-7-7-7-7-7-2-2-2-2-6-7-9-7-||-0-0-0-0-0-0-0-0-4-4-4-4-4-4-4-4-7-7-7-7-7-7-7-7-2-2-2-2-6-7-9-7-||-0-0-0-0-0-0-0-0-4-4-4-4-4-4-4-4-7-7-7-7-7-7-7-7-2-2-2-2-6-7-9-7-|
|-----------------------------------------------------------------||-----------------------------------------------------------------||-----------------------------------------------------------------||-0-0-0-0-0-0-0-0-4-4-4-4-4-4-4-4-7-7-7-7-7-7-7-7-2-2-2-2-2-2-2-2-||-0-0-0-0-0-0-0-0-4-4-4-4-4-4-4-4-7-7-7-7-7-7-7-7-2-2-2-2-2-2-2-2-||-0-0-0-0-0-0-0-0-4-4-4-4-4-4-4-4-7-7-7-7-7-7-7-7-2-2-2-2-2-2-2-2-|
|-----------||-----------||-----------||-4-4-4-4-4-||-4-4-4-4-4-||-4-4-4-4-4-|
DOING THE INTRO AGAIN:|-----------------------------------------------------------------||-----------------------------------------------------------------||-----------------------------------------------------------------||-0-0-0-0-0-0-0-0-2-2-2-2-2-2-2-2-4-4-4-4-4-4-4-4-7-7-7-7-7-7-7-7-||-0-0-0-0-0-0-0-0-2-2-2-2-2-2-2-2-4-4-4-4-4-4-4-4-7-7-7-7-7-7-7-7-||-0-0-0-0-0-0-0-0-2-2-2-2-2-2-2-2-4-4-4-4-4-4-4-4-7-7-7-7-7-7-7-7-|
|---------------------------------| |------------------||---------------------------------| |------------------||---------------------------------| |------------------|x2|-0-0-0-0-0-0-0-0-3-3-3-3-3-3-3-3-| |-44-44-44-44-7--2-||-0-0-0-0-0-0-0-0-3-3-3-3-3-3-3-3-| |-44-44-44-44-7--2-||-0-0-0-0-0-0-0-0-3-3-3-3-3-3-3-3-| |-44-44-44-44-7--2-|
OUTRO:|------------------------------||------------------------------||------------------------------||-44-44-44-44-7--2-44-44-44-44-||-44-44-44-44-7--2-44-44-44-44-||-44-44-44-44-7--2-44-44-44-44-|
Please rate this tab:
x1.0