Skindred - Roots Rock Riot tab

Drop C#

Intro

---------------------------------------------------------------------------------------|---------------------------------------------------------------------------------------|---------------------------------------------------------------------------------------|--555-444-777-666-3333-----------------5-5--4-4--7-7--6-6-3333-----555-444-------------|--555-444-777-666-3333-<-2times--------5-5--4-4--7-7--6-6-3333-----555-444-------------|--555-444-777-666-3333-----------------5-5--4-4--7-7--6-6-3333-----555-444-77p-6-33p---|
Verse
0.10 - 0.30--------------------------|--------------------------|--------------------------|--4h5-44--44h5-4s~~~~-----|--4h5-44--44h5-4s~~~~-----|--4h5-44--44h5-4s~~~~-----|So much Blood.........
Bridge 0.30 - 0.35
---------------------------------------------|--7-----8------9------10-----11-----12-------|--9^11--10^12--11^13--12^13--13^15--14^16----|---------------------------------------------|---------------------------------------------|---------------------------------------------|
Ref 0.35-
------------------------------------------------------------|------------------------------------------------------------|------------------------------------------------------------|--4h5-44--44h5-4-44h5-2-------------------------------------|--4h5-44--44h5-4-44h5-2--3 times----------------------------|--4h5-44--44h5-4-44h5-2------------555-444-777-666-3333-----|
-------------------------------------------------------------|-------------------------------------------------------------|-------------------------------------------------------------|--4h5-44--44h5-4-44h5-2--------------------------------------|--4h5-44--44h5-4-44h5-2--3 times-----------------------------|--4h5-44--44h5-4-44h5-2------------555-444-777-666-3333------|
Second Guitar-------------------------------------------------------------|--1818-16h18-1818-16s~~~~~~----------------------------------|-------------------------------------------------------------|-------------------------------------------------------------|-------------------------------------------------------------|-------------------------------------------------------------|
Bridge 0.55---------------------------------------------------------------|---------------------------------------------------------------|---------------------------------------------------------------|---55-44-77-66-3-3---------------------------------------------|---55-44-77-66-3-3---------------------------------------------|---55-44-77-66-3-3---------------------------------------------|
---------------------------------------------------------------|---------------------------------------------------------------|---------------------------------------------------------------|--4h5-44--44h5-4s~~~~------------------------------------------|--4h5-44--44h5-4s~~~~------------------------------------------|--4h5-44--44h5-4s~~~~------------------------------------------|
Verse 1.05
------------------------|------------------------|------------------------|--4h5-44--44h5-4s~~~~---|--4h5-44--44h5-4s~~~~---|--4h5-44--44h5-4s~~~~---|
Second guitar------------------|---7----7---------|---9^11-9^11------|------------------|------------------|------------------|
Bridge 1.16---------------------------------------------------|--7-----8------9------10-----11-----12-------------|--9^11--10^12--11^13--12^13--13^15--14^16----------|---------------------------------------------------|---------------------------------------------------|---------------------------------------------------|
Ref 1.21-------------------------------------------------------|-------------------------------------------------------|-------------------------------------------------------|--4h5-44--44h5-4-44h5-2--------------------------------|--4h5-44--44h5-4-44h5-2--------------------------------|--4h5-44--44h5-4-44h5-2-----555-444-777-666-3333-------|
--------------------------------------------------|--------------------------------------------------|--------------------------------------------------|--4h5-44--44h5-4-44h5-2---------------------------|--4h5-44--44h5-4-44h5-2---------------------------|--4h5-44--44h5-4-44h5-2-----555-444-777-666-3333--|
Second guitar-------------------------------------------------------------|--1818-16h18-1818-16s~~~~~~----------------------------------|-------------------------------------------------------------|-------------------------------------------------------------|-------------------------------------------------------------|-------------------------------------------------------------|
Bridge 1.40---------------------------------|---------------------------------|---------------------------------|--4--5h4---5h4--54---5h4--54-----|--4--5h4---5h4--54---5h4--54-----|--4--5h4---5h4--54---5h4--54-----|
Solo 1.48--------------------------------------------------------|---------------------3p---------------------------------|---------------------3p---------------------------------|---------------------3p---------------------------------|--------3---3-2222--------------------------------------|--5-0-5---5-------0-------------------------------------|
------------------------------------------------------------|------------------------------------------3p----------------|------------------------------------------3p----------------|------------------------------------------3p----------------|--------3---3-2222------------3---3-222---------------------|--5-0-5---5-------0000--5-0-5---5-------0-------------------|
------------------------------------------------------|------------------------------------------------------|------------------------------------------------------|--4--5h4---5h4--54---5h4--54--------------------------|--4--5h4---5h4--54---5h4--54--------------------------|--4--5h4---5h4--54---5h4--54----555-444-777-666-3333--|
----------------------------------------------------|----------------------------------------------------|----------------------------------------------------|--4h5-44--44h5-4-44h5-2-----------------------------|--4h5-44--44h5-4-44h5-2-----------------------------|--4h5-44--44h5-4-44h5-2-----555-444-777-666-3333----|
-----------------------------------------------------------|-----------------------------------------------------------|-----------------------------------------------------------|--555-444-777-666-3333-----5-5--4-4--7-7--6-6-3333--4s~~~--|--555-444-777-666-3333-----5-5--4-4--7-7--6-6-3333--4s~~~--|--555-444-777-666-3333-----5-5--4-4--7-7--6-6-3333--4s~~~--|
Tap to rate this tab
 
# A B C D E F G H I J K L M N O P Q R S T U V W X Y Z