Skinlab – Know Your Enemies tab

Know Your Enemies
By: Skinlab
Album: Disembody: The New Flesh 
Guitarist: Snake/ Scott
Tabbed By: Brandon Moroch (chimaira1120@aol.com)
Tuning: B,F#,B,e,g#,c#


i tabbed out all the different parets, but you have to 
figure out what goes where. however i did put all the diffenent
parts in order they appear, but previous riffs sometimes are
played later on. Even though they have 2 guitarists, only one 
riff (*) in this song has overlapping parts, the rest both play 
the same. This is a fairly easy song to play, but it so cool
to play. Listen to the song for timing and changes. |------------||------------||------------||-3-3/4-55---||-3-3/4-55---||-3-3/4-555--|
|------------||------------||------------||----4-2/1---||----4-2/1---||-4444-2/1---|
|----------||----------||----------||-3-3/4-5--||-3-3/4-5--||-3-3/4-5--|
|-------------------||-------------------||----------------0--||-22-0h22-0h22---0--||-22-0h22-0h22---0--||-22-0h22-0h22---0--|
|--------------------||--------------------||--------------------||-2-2--2-2--2-2---0--||-2-2--2-2--2-2---0--||-2-2--2-2--2-2---0--|
|-----------------------------------------||-1111111111111111/14-14141414/15-151515--||-1010101010101010/13-13131313/14-141414--||--9-9-9-9-9-9-9-9/11-11111111/12-121212--||--9-9-9-9-9-9-9-9/11-11111111/12-121212--||-----------------------------------------|
|--------------------||-----------------------|-----------------------------------||--------------------||-----------------------|------------------999999/10101010--||--------------------||-----------------------|------------------xxxxxx--x-x-x-x--||-2-22-2-22-2-22--0--||-2-22-2-22-2-22--------|-2-22-2-22-2-22---777777/-8-8-8-8--||-2-22-2-22-2-22--0--||-2-22-2-22-2-22--------|-2-22-2-22-2-22--------------------||-2-22-2-22-2-22--0--||-2-22-2-22-2-22--0h4^--|-2-22-2-22-2-22--------------------|
*|--------------------||--------------------||----------(0-)x-----||-33-2p0---(7^)------||-33-2p0-------------||-33-2p0----------0--|
*|----------7777------||----------xxxx------||----------9999------||-33-2p0-------------||-33-2p0-------------||-33-2p0----------0--|
|--------------||--------------||--------------||-33-2-0-------||-33-2-0-------||-33-2-0-------|
|-----------------||----------9999---||----------xxxx---||--44-2/1--7777---||--44-2/1---------||--44-2/1---------|
|-------------||-------------||-------------||-------------||---33/4-5----||-3333/4-5----|
|-------------------||----------||-------------------||----------||-------------------||--0~------||-2-2--2-2--2-2--0--||--0~------||-2-2--2-2--2-2--0--||--0~------||-2-2--2-2--2-2--0--||--0~------|
Please rate this tab:
x1.0