Skinless - Merrie Melody tab

MERRIE MELODY - Skinless - Foreshadowing Our Demise
Version 1.0 - November 2001
Transcribed by Lalith Vipulananthan (singularitymetaltab@hotmail.com)

Tuning (Low to High) - B E A D

Sample [0.00 - 0.09]


Intro|------||-5----||-3----||-3----|
A1|---------------------------------------------------||-4-----------6\5---4-----6\5---------6\5---4-------||-2-4-4-4-2-4-4\3---4-----4\3-4-4-2-4-4\3---2-------||-2-2-2-2-0-2-4\3-0-2-----4\3-2-2-0-2-4\3-0-2-------| . . . . . . . . . .
A2|---------------------------------------------------||-4-----------6\5---4-----6-----5-------------------||-2-4-4-4-2-4-4\3---4-2-4-4-----3-------------------||-2-2-2-2-0-2-4\3-0-2-0-2-4-----3-------------------| . . . . . . . . .
A3|---------------------------------------------------||-4-----------6\5---4-----6\5---------6\5---4-------||-2-4-4-4-2-4-4\3---4-2-4-4\3-4-4-2-4-4\3---2-------||-2-2-2-2-0-2-4\3-0-2-0-2-4\3-2-2-0-2-4\3-0-2-------| . . . . . . . . . . . .
A4|---------------------------------------------------||-4-----------6\5---4-----6-----5-------------------||-2-4-4-4-2-4-4\3---4-2-4-4-----3-------------------||-2-2-2-2-0-2-4\3-0-2-0-2-4-----3-------------------| . . . . . . . .
Fill 1 Guitar 1|---------------------------------------------------------------||---------8-------------------------------8---------8---7-------||-6-7-6-7-6-7-6-7-----------------6-7-6-7-6-7-6-7---6---5-------||-4-5-4-5---5-4-5-----------------4-5-4-5---5-4-5-4---4---------|
| . . . . . . . . . . . . . . . . | Guitar 2|---------------------------------------------------------------||-------------------------8-------------------------8---7-------||-----------------6-7-6-7-6-7-6-7-------------------6---5-------||-----------------4-5-4-5---5-4-5-----------------4---4---------| . . . . . . . .
B1 [1-3,5-7] [4] [8]|-----------------|-----------------|-----------------||---------8-------|---8---7---6---7-|-8---------------||-6-7-6-7-6-7-6-7-|---6---5---4---5-|-6---------------||-4-5-4-5---5-4-5-|-4---4---4---4---|-----------------| . . . . . . . . . . .
Repeat B1
Fill 2 (speed up!)|---------------------------------||---------------------------------||-7-7-7-7-7-7-7-7-7-7-7-7-7-7-7-7-||-5-5-5-5-5-5-5-5-5-5-5-5-5-5-5-5-| . . . . . . . . . . . . . . . .
B2 (slower)|------------------------------------------------------------------||---------8---------------8---------------8---------8---7---6---Ah-||-6-7-6-7-6-7-6-7-667-6-7-6-7-6-7-5-7-6-7-6-7-667-6-6---5---4---5--||-4-5-4-5---5-4-5-445-4-5---5-4-5-4-5-4-5---5-445-4---4---4---4----| . . . . . . . ... . . . . . . . . . . ... . . . .
B3 |-----------------------------------------------------------------||---------8---------------8---------------8---------8---7---------||-6-7-6-7-6-7-6-7-667-6-7-6-7-6-7-5-7-6-7-6-7-667-6-6---5---------||-4-5-4-5---5-4-5-445-4-5---5-4-5-4-5-4-5---5-445-4---4-----------| . . . . . . . ... . . . . . . . . . . ... . .
B4|------------------------------------------------------------------||---------8---------------8---------------8---------8---7---6---7--||-6-7-6-7-6-7-6-7-667-6-7-6-7-6-7-5-7-6-7-6-7-667-6-6---5---4---5--||-4-5-4-5---5-4-5-445-4-5---5-4-5-4-5-4-5---5-445-4---4---4---4----| . . . . . . . ... . . . . . . . . . . ... . . . .
B5|------------------------------------------------------------------------||---------8---------------8---------------8---------8---7-----5---4---5--||-6-7-6-7-6-7-6-7-667-6-7-6-7-6-7-5-7-6-7-6-7-667-6-6---5-----3---2---5--||-4-5-4-5---5-4-5-445-4-5---5-4-5-4-5-4-5---5-445-4---4-----4---4-----3--| . . . . . . . ... . . . . . . . . . . ... . . . .
C1|---------9/10-------------5---------------9/10-----5-10-9----||---------6/7--------------6---------------6/7------6-7--6----||---------7/8--------------7---------------7/8------7-8--7----||-0-0-0-0------0-0-0---0-0-----0-0-0-0-0-0------0-0-----------| . . . . . . . . . . . . . . . . .
C2|---------9/10-------------5---------------9/10-----5-10-9-Ah--||---------6/7--------------6---------------6/7------6-7--6-10--||---------7/8--------------7---------------7/8------7-8--7-----||-0-0-0-0------0-0-0---0-0-----0-0-0-0-0-0------0-0------------| . . . . . . . . . . . . . . . . .
Repeat C1
C3|---------9/10-------------5---------------9/10-----5-10-9---------------||---------6/7--------------6---------------6/7------6-7--6------6---4----||---------7/8--------------7---------------7/8------7-8--7------3---4----||-0-0-0-0------0-0-0---0-0-----0-0-0-0-0-0------0-0--------7\---4---2----| . . . . . . . . . . . . . . . . .
Repeat A1+A2+A3+A4, Fill 1, B1 x 3, C1+C2, C1
Fill 3 |-------------------------------------------------------||-------------------------------------------------------||-------------------------------------------------------||-------------------------------------------------------|
D|-10---9-------------------10---9-----------------10---9-------------------10---9----||-7----6-------------------7----6-----------------7----6-------------------7----6----||-8----7-------------------8----7-----------------8----7-------------------8----7----||----------0-0-0-0-0-0-0-0--------000-0-0-0-0-0-0----------00000---00000-------------| . . . . . . . . ... . . . . . . ..... .....
E Play 4 times|-9-----9---------||-9-----9---------||-7-----7---------||---0-0---0-0-0-0-| . . . . . .
Outro|-10---9-----------------||-7----6-----------9\----||-8----7-----------7\----||----------0-0-0-0-0\----| . . . .
The End! ----------------------------------------------------- Lalith Vipulananthan (singularitymetaltab@hotmail.com)
Tap to rate this tab
 
# A B C D E F G H I J K L M N O P Q R S T U V W X Y Z