Skunk Anansie - One Hundred Ways To Be A Good Girl tab

Author/Artist: Skunk Anansie
Album: paranoid sunburnt (1995)
song title: One hundred ways to be a good girl

Standard Tuning

Beautiful song,  very easy to play , sounds good as well.

The first verse is played with some harmonics I guess, but it is more 
easy to directly play the plain notes 
 

Intro|----13------13-13-----12-----12-12|/--5---5-5-----6--6-6-----5---5-5--||-------11----------------11-------|/---3-----------4-----------7------||--12------12--------12-----12-----|/-3---3------5---5-------7---7-----||----------------------------------|-----------------------------------|X4|----------------------------------|-----------------------------------||----------------------------------|-----------------------------------| X2 at first slide down
|----13------13--13-13--13-13-13-13-13-12-12-12-12-12-12-12-12---------||-------11-------------------------------------------------------------||--12------12--------------- ------------------------------------------||----------------------------------------------------------------------||----------------------------------------------------------------------||----------------------------------------------------------------------|
|---5-----5--5-5-5-5-5---6----6------5----5------||-----3--------------------4-----------7---------||-3-----3---------------5---5-------7----7-------||------------------------------------------------||------------------------------------------------||------------------------------------------------|
From arpegio to riff "I know one hundred ways to be a good girl...."
|--13--13-13-13- 13-13-13-13-13--13----12-12-12-12-12-12-12-12-12-12-||--11--11-11-11--11-11-11-11-11--11----11-11-11-11-11-11-11-11-11-12-||---------------------------------------------------------------------||---------------------------------------------------------------------||---------------------------------------------------------------------||---------------------------------------------------------------------|
|--5-5-5-5-5-5-5------6-6-6-6----5-5-5-5--------||--3-3-3-3-3-3-3------4-4-4-4----7-7-7-7--------||--3-3-3-3-3-3-3------5-5-5-5----7-7-7-7--------||-----------------------------------------------||-----------------------------------------------||-----------------------------------------------|
repeat from clean to distortion "Still I am alone, i am alone.." until time :2'15''
high distortion|----------------------------------------||----------------------------------------||---------5------------8------7----------|X2|--5------5-----8------8------7----------||--5------3-----8------6------5----------||--3------------6------------------------|
let ring
|----3-----3-----3--3----3----3------------||------3-----3--------3----3---------------||--------3-----3---3----3---3---3----------||------------------------------------------||------------------------------------------||------------------------------------------|
|-12-----12-----12---12----12-----12-------||---11-----11----------11----11------------||-----12-----12---12-----12----12---12-----||------------------------------------------||------------------------------------------||------------------------------------------|
|----5-----5-----5----5----5----5----------||------3-----3---------3----3--------------||-------3-----3----3-----3-----3---3-------||------------------------------------------||------------------------------------------||------------------------------------------|
|----6-----6-----6----5---5----5------------||------4-----4---------7----7---------------||-------5-----5----5----7-----7---7---------||-------------------------------------------||-------------------------------------------||-------------------------------------------|
|-13-----13-----13---13----13-----13-------||---11-----11----------11----11------------||-----12-----12---12-----12----12---12-----||------------------------------------------||------------------------------------------||------------------------------------------|
|-12-----12-----12---12----12-----12-------||---11-----11----------11----11------------||-----12-----12---12-----12----12---12-----||------------------------------------------||------------------------------------------||------------------------------------------|
|----5-----5-----5----5----5----5----------||------3-----3---------3----3--------------||-------3-----3----3-----3-----3---3-------||------------------------------------------||------------------------------------------||------------------------------------------|
|----6-----6-----6----5---5----5------------||------4-----4---------7----7---------------||-------5-----5----5----7-----7---7---------||-------------------------------------------||-------------------------------------------||-------------------------------------------|
|----13------13-13-----12-----12-12|/--5---5-5-----6--6-6-----5---5-5--||-------11----------------11-------|/---3-----------4-----------7------||--12------12--------12-----12-----|/-3---3------5---5-------7---7-----||----------------------------------|-----------------------------------||----------------------------------|-----------------------------------||----------------------------------|-----------------------------------|
enjoy
Tap to rate this tab
 
# A B C D E F G H I J K L M N O P Q R S T U V W X Y Z