Slapshock - Tsinelas tab

SONG>TSINELAS[2003 SONG OF THE YEAR]I HOPE
BAND>KAMIKAZEE[2003 BAND OF THE YEAR]I HOPE
CD>KAMIKAZEE[2003 ALBUM OF THE YEAR]I HOPE
==================================================================
TRANSCRIBED>JEFFREY A. CAMPOSANO
AGE>17
PHONE>780-93-88/FOR COMMENT/CORRECTION AT QUESTION

MGA PRE THIS IS MY ACOUSTIC ARRANGEMENT WLA KSI ME ELECT.GTR.EH
DONT WORRY SOUNDS GOOD NMAN EH AND I HOPE THIS TAB. WILL HELP YOU TO DO OTHERE
VERSION......KICK-ASS......KAMI-QUEZO......................
             

STANDARD TUNNING

INTRO|--------------|--------------|--------------|--------------|--2-2---------|--2-2---------
GTR.1
|--------------------- |---------------------|---------------------|--------------------- 4X|---------------------|--0-2-3-0-3-0-2-3----
GTR.2
|--------------------- |---------------------|---------------------|--------------------- 4X|---0-2-3-0-3-0-2/3---|---------------------
GTR.1/GTR.2
|--------------------- |---------------------|---------------------|--------------------- |--2-2----------------|--2-2----------------
|------------------------------------------------------------ |------------------------------------------------------------ |------------------------------------------------------------ |------------------------------------------------------------ 4X|--0-2-3-0-3-0-2-3-0-2-3-0-3-0-3-3---------------------------|--0-2-3-0-3-0-2-3-0-2-3-0-3-0-3-3---------------------------
VERSEGTR.1|------2------|------3------|------2-------|--------3--------|------2------|------3------|------2-------|--------3--------|--4-------4-4|--5-------5-5|--4-------4-4-|----5-------5----|--4-------4-4|--5-------5-5|--4-------4-4-|----5-------5---- 2X|--2-------2-2|--3-------3-3|--2-------2-2-|--3-3-------3----|-------------|-------------|--------------|----3------------ ASAN...... KAYA....... DITO.....KA NINA...........
GTR.2 |-----x-x-x-x-x|-----x-x-x-x-x| |----x-x-x-x-x-|----x-x-x-x-x-||--4-----------|--5-----------||--4-----------|--5-----------| 2X |--2-----------|--3-----------| |--------------|--------------|
PRE-CHORUSGTR.1|--------------------- ---------------- ----------------------|-------------------------------------------------------------|------4---4---4-------5---5---5-------4---4---4-------5---5--|----4---4---4-------5---5---5-------4---4---4-------5---5----|--2-------------2-3-------------3-2-------------2-3----------|-------------------------------------------------------------
|-----------------------|-----------------------|--3-3-3-3-3-3-3-3------|--3-3-3-3-3-3-3-3------ |--5-5-5-5-5-5-5-5------|-----------------------
GTR.2
|-----x-x-x-x-x|-----x-x-x-x-x---|----x-x-x-x-x-|----x-x-x-x-x----|--4-----------|--5--------------|--4-----------|--5-------------- X2|--2-----------|--3--------------|--------------|-----------------
CHORUS GTR.1/GTR.2
|--------------------- |---------------------|---------------------|--------------------- |--2-2----------------|--2-2----------------
|------------------------------------------------------------ |------------------------------------------------------------ |------------------------------------------------------------ |------------------------------------------------------------ 4X|--0-2-3-0-3-0-2-3-0-2-3-0-3-0-3-3---------------------------|--0-2-3-0-3-0-2-3-0-2-3-0-3-0-3-3--------------------------- ASAN ANG TSI..............................
|----------------------------------------- |----------------------------------------- |----------------------------------------- |----------------------------------------- 4X|--2-2-2-2-2-2-2-2-3-3-3-3-3-3-3-3--------|--2-2-2-2-2-2-2-2-3-3-3-3-3-3-3-3-------- TSINELAS KO............
REPEAT>VERSE REPEAT>PRE-CHORUS REPEAT>CHORUS BRIDGE GTR.1
|---------------|-------------------|---------------|-------------------|--4-x-4-4-x-4-x|--5-x-5-5-x-5-x---- |--4-x-4-4-x-4-x|--5-x-5-5-x-5-x---- 8X|--2-x-2-2-x-2-x|--3-x-3-3-x-3-x----|---------------|------------------- ASAN NA DI NAMAN....
GTR.2 f.2 f.3|---x-x-x-x-x-x-|---x-x-x-x-x-x------|--x-x-x-x-x-x-x|--x-x-x-x-x-x-x-----|---------------|-------------------- |---------------|-------------------- 8X|---------------|--------------------|---------------|--------------------
REPEAT>CHORUS
Tap to rate this tab
 
# A B C D E F G H I J K L M N O P Q R S T U V W X Y Z