Slayer - Divine Intervention tab

----------------------------------------------------------------------------
	      Divine Intervention Album - Slayer
----------------------------------------------------------------------------

Tabbed By: Brack

1. Killing Fields

Tuning Eb


 RIFF 1 INTRO

|--------------------------------------------------------------------||--------------------------------------------------------------------||--------------------------------------------------------------------||--------------------------------------------------------------------||-2-2----------------------------------------------------------------||-0-0----------------------------------------------------------------| .
|--------------------------------------------------------------------||--------------------------------------------------------------------||--------------------------------------------------------------------||--------------------------------------------------------------------||-x\\\\-----x\\\\----x\\\\----x\\\\----------------------------------||-x\\\\-----x\\\\----x\\\\----x\\\\----------------------------------|
RIFF 2A INTRO x1
|KING|---------------------------------|---------------------------------||---------------------------------|---------------------------------||---------------------------------|---------------------------------||---------------------------------|---------------------------------||-2-2-----2-3-----2-4-----2-4-----|-2-2-----2-3-----2-4-----2-4-6---||-0-0-0-0-0-1-0-0-0-2-0-0-0-3-0-0-|-0-0-0-0-0-1-0-0-0-2-0-0-0-3-4---|| . . . . . . . . . . . . . .
|
|HANNEMAN|---------------------------------|---------------------------------||---------------------------------|---------------------------------||---------------------------------|---------------------------------||---------------------------------|---------------------------------||-2-2-----------------------------|-(2)-----------------------------||-0-0-----------------------------|-(0)-----------------------------| .
|KING|---------------------------------|---------------------------------||---------------------------------|---------------------------------||---------------------------------|---------------------------------||---------------------------------|---------------------------------||-2-2-----2-3-----2-4-----2-4-----|-2-2-----2-3-----2-4-----2-4-6---||-0-0-0-0-0-1-0-0-0-2-0-0-0-3-0-0-|-0-0-0-0-0-1-0-0-0-2-0-0-0-3-4---|| . . . . . . . . . . . . . .
|
|HANNEMAN WAH & BAR WAH & BAR|---------------------------------|---------------------------------||---------------------------------|---------------------------------||---------------------------------|------------3////\\\\\\\\--------||---------------------------------|-2//\\\\-------------------------||-2-2-----------------------------|---------------------------------||-0-0-----------------------------|---------------------------------| .
RIFF 2 INTRO x2
|---------------------------------|---------------------------------||---------------------------------|---------------------------------||---------------------------------|---------------------------------||---------------------------------|---------------------------------||-2-2-----2-3-----2-4-----2-4-----|-2-2-----2-3-----2-4-----2-4-6---||-0-0-0-0-0-1-0-0-0-2-0-0-0-3-0-0-|-0-0-0-0-0-1-0-0-0-2-0-0-0-3-4---| . . . . . . . . . . . . . .
RIFF 3 BREAK x1
|KING|-----------------------------------------------------||-----------------------------------------------------||-----------------------------------------------------||-----------------------------------------------------||-----------------------4-3-------------------4-----3-||-300200200100600300200-2-1-3002002001006003002-----1-|| ..................... .................. x
|
|HANNEMAN|-----------------------------------------------------||-----------------------------------------------------||-----------------------------------------------------||-----------------------------------------------------||-5--------3--8---------4-3-------------------4-----3-||-3--------1--6---------2-1-3002002001006003002-----1-| x x x .................. x
RIFF 2B INTRO x4
|---------------------------------|---------------------------------||---------------------------------|---------------------------------||---------------------------------|---------------------------------||---------------------------------|---------------------------------||-2-2-----2-3-----2-4-----2-4-----|-2-2-----2-3-----2-4-----2-4-6---||-0-0-0-0-0-1-1-1-0-2-2-2-0-3-3-3-|-0-0-0-0-0-1-1-1-0-2-2-2-0-3-4---| . . . . . . . . . . . . . . . . . . . . .
RIFF 4 BREAK x6
|---------------------||---------------------||---------------------||---------------------||---------------------||-000-0-0-0-000-0-000-| ... . . . ... . ...
RIFF 5A INTO VERSE x1
|KING|-------------------------------------------------||-------------------------------------------------||-------------------------------------------------||-----------------------------------------3-------||-----3-----------6-----------3-----------1-------||-000-1---000-000-4---000-000-1---000-000-----000-|| ... ... ... ... ... ... ... ...
|
|HANNEMAN|-------------------------------------------------||-------------------------------------------------||-------------------------------------------------||-------------------------------------------------||-2-----------------------------------------------||-0-----------------------------------------------| x
|KING|-------------------------------------------------||-------------------------------------------------||-------------------------------------------------||-------------------------------------------------||-----3-----------6-----------3-----------6---4---||-000-1---000-000-4---000-000-1---000-000-6---4---|| ... ... ... ... ... ... ...
|
|HANNEMAN|-------------------------------------------------||-------------------------------------------------||-------------------------------------------------||-------------------------------------------------||-----------------------------------------6---4---||-----------------------------------------6---4---|
RIFF 5 VERSE x4
|-------------------------------------------------||-------------------------------------------------||-------------------------------------------------||-----------------------------------------3-------||-----3-----------6-----------3-----------1-------||-000-1---000-000-4---000-000-1---000-000-----000-| ... ... ... ... ... ... ... ...
|-------------------------------------------------||-------------------------------------------------||-------------------------------------------------||-------------------------------------------------||-----3-----------6-----------3-----------6---4---||-000-1---000-000-4---000-000-1---000-000-6---4---| ... ... ... ... ... ... ...
RIFF 6 CHORUS x2
|-------------------------------------------------||-------------------------------------------------||-------------------------------------------------||-------------------------------------------------||-2------1--2--5--4-------2------1--2--5--4--/7---||-2------1--2--5--4-------2------1--2--5--4--/7---|
RIFF 5B INTO VERSE
|HANNEMAN|-------------------------------------------------||-------------------------------------------------||-------------------------------------------------||-----------------------------------------3-------||-----3-----------6-----------3-----------1-------||-000-1---000-000-4---000-000-1---000-000-----000-|| ... ... ... ... ... ... ... ...
|
|KING|-------------------------------------------------||-------------------------------------------------||-------------------------------------------------||-----------------------------------------3-------||-2---------------------------------------1-------||-0-----------------------------------------------| x x
|HANNEMAN|-------------------------------------------------||-------------------------------------------------||-------------------------------------------------||-------------------------------------------------||-----3-----------6-----------3-----------6---4---||-000-1---000-000-4---000-000-1---000-000-6---4---|| ... ... ... ... ... ... ...
|
|KING|-------------------------------------------------||-------------------------------------------------||-------------------------------------------------||-------------------------------------------------||-----------------6-----------------------6---4---||-----------------4-----------------------6---4---| x
RIFF 5 VERSE x2 RIFF 6A CHORUS x2
|-------------------------------------------------||-------------------------------------------------||-------------------------------------------------||-------------------------------------------------||-3------2--3--6--5-------3------2--3--6--5--/8---||-3------2--3--6--5-------3------2--3--6--5--/8---|
RIFF 7 BRIDGE x1
|----------------------------------------------------------||----------------------------------------------------------||----------------------------------------------------------||----------------------------------------------------------||----------------------------------------------------------||-222-222222-222222-222222-222222-222222-222222-222222-222-| ... ...... ...... ...... ...... ...... ...... ...... ...
RIFF 7 BRIDGE x2 FASTER
RIFF 8 BREAK x1|BOTH| WAH WAH WAH WAH|-----------------------------------------------------------------||-----------------------------------------------------------------||-----------------------------------------------------------------||-6---------------5-------------------------------8---------------||-6---------------5---------------7---------------8---------------||---------------------------------7-------------------------------|
| |
|3RD GUITAR|-----------------------------------------------------------------||-----------------------------------------------------------------||-----------------------------------------------------------------||-----------------------------------------------------------------||-----------------------------------------------------------------||-000-000-000-000-000-000-000-000-000-000-000-000-000-000-000-000-| ... ... ... ... ... ... ... ... ... ... ... ... ... ... ... ...
RIFF 9 INTERLUDE x2
|-----------------------------------------------------------------||-----------------------------------------------------------------||-----------------------------------------------------------------||-----------------------------------------------------------------||-----------------------------------------------------------------||-4-444444-444444-3-333333-333333-0-000000-000000-000000-00000000-| . ...... ...... . ...... ...... . ...... ...... ...... ........
|-----------------------------------------------------------------||-----------------------------------------------------------------||-----------------------------------------------------------------||-----------------------------------------------------------------||-----------------------------------------------------------------||-4-444444-444444-3-3333-6-666666-0-000000-000000-000000-00000000-| . ...... ...... . .... . ...... . ...... ...... ...... ........
SOLO KING WAH____________________________________________________________________|-------------------------------------------------------------------------||-------------------------------------------------------------------------||-------------------------------------------------------17-12h14-17-12h14-||-------------------------------------17-12h14-17-12h14-------------------||-------------------17-12h14-17-12h14-------------------------------------||-17-12h15-17-12h15-------------------------------------------------------|
T T T T T T T T WAH_________________________________|-------------------17-12h15-17-12//19b-19b^^--19b^^^^----||-17-12h15-17-12h15---------------------------------------||---------------------------------------------------------||---------------------------------------------------------||---------------------------------------------------------||---------------------------------------------------------|
T T T T WAH__________________________________________________|-16-19-18-16-19-18-16------------------------------------------------------|----------------------18-17-15-18-17-15------------------------------------|----------------------------------------18-16-15-18-16-15------------------|----------------------------------------------------------17-15-14-17-1514-|---------------------------------------------------------------------------|---------------------------------------------------------------------------
WAH_____________________ WAH________________________________________|-----------------------------|---------------------------------------------|-----------------------------|------------------------------------12-14-15-|-----------------------------|---------------------------12-13-15----------|-----------------------------|------------------11-12-14-------------------|-16-14-13-16-14-13-----------|---------10-11-13----------------------------|-------------------15/16b^^--|-9-10-12-------------------------------------
WAH__|-12/13-|-19-13h16-19-13h15-19-13h16-19-13h18-19-13h16-19-13h15-16-12h13p12-|-------|-------------------------------------------------------------------|-------|-------------------------------------------------------------------|-------|-------------------------------------------------------------------|-------|-------------------------------------------------------------------|-------|------------------------------------------------------------------- T T T T T T T
|-19-13h16-19-13h15-19-13h16-19-13h18-19-13h16-19-13h15-21-15h18p15---------|------------------------------------------------------------------21-18p15-|---------------------------------------------------------------------------|---------------------------------------------------------------------------|---------------------------------------------------------------------------|--------------------------------------------------------------------------- T T T T T T T T
|-19-13h16-19-13h15-19-13h16-19-13h18-21-15h18p15---------------------------|-------------------------------------------------21-18p15------------------|----------------------------------------------------------21-18p15---------|-------------------------------------------------------------------2017p14-|---------------------------------------------------------------------------|---------------------------------------------------------------------------
T T T T T T T T A.H. WAH______________________________________________________|----------------------------------------------------------5//16---------||------------------------------------------------------------------------||--------------------------------------------------9-10-12------x\\\\----||-3b^^^^----------2h3p2-------5h6p5--------8-10-11--------------x\\\\----||-----------1-2-4-------4-5-7-------7-8-10-------------------------------||------------------------------------------------------------------------|
RIFF 10 x UNDER SOLO x3
|-----------------------------|-----------------------------||-----------------------------|-----------------------------||-----------------------------|-----------------------------||-----------------------------|-----------------------------||-----------------------------|-----------------------------||-111111110000111444444333333-|-111111110000111444333666666-| ........................... ...........................
FILL 1
|-----------------------------|-----------------------------||-----------------------------|-----------------------------||-----------------------------|-----------------------------||-----------------------------|-----------------------------||-----------------------------|-----------------------------||-111111110000111444444333333-|-111111110000111444----------| ........................... ..................x
RIFF 2C CHORUS x2
|---------------------------------|---------------------------------||---------------------------------|---------------------------------||---------------------------------|---------------------------------||---------------------------------|---------------------------------||-2-2-----2-3-----2-4-----2-4-----|-2-2-----2-3-----2-4-----2-4-6---||-0-0-000-0-1-000-0-2-000-0-3-000-|-0-0-000-0-1-000-0-2-000-0-3-4---| ... ... ... ... ... ... ...
RIFF 3A END
|-----------------------------------------------------||-----------------------------------------------------||-----------------------------------------------------||-----------------------------------------------------||-----------------------4-3-------------------4-------||-300200200100600300200-2-1-3002002001006003002-------| ..................... .................. x
2. Sex.Murder.Art Tuning Eb RIFF 1 INTRO x4
|----------------------------------||----------------------------------||----------------------------------||---------5--------7---6---5-------||-4-6-7-4---7-4-6----6---6---7-6-5-||----------------------------------|
RIFF 1A INTRO x4
|----------------------------------||----------------------------------||----------------------------------||----------------------------------||---------1--------3---2---1-------||-0-2-3-0---3-0-2----2---2---3-2-1-| . . . . . . . . . . . .
FILL 1
|-----------||-----------||-----------||-----------||-----------||-1b^^^^----|
RIFF 2 VERSE x1
|------------------------------------------||------------------------------------------||------------------------------------------||------------------------------------------||-5------------------------------------4p3-||-33333333-4-33333333-6-33333333-4-333-----| ........ . ........ . ........ . ...
|------------------------------------------||------------------------------------------||------------------------------------------||------------------------------------------||-5------------------------------3----4----||-33333333-4-33333333-6-33333333-3----2----| ........ . ........ . ........
|------------------------------------------||------------------------------------------||------------------------------------------||------------------------------------------||-5------------------------------------4p3-||-33333333-4-33333333-6-33333333-4-333-----| ........ . ........ . ........ . ...
|------------------------------------------||------------------------------------------||------------------------------------------||--------------------------------6----5----||-5------------------------------6----5----||-33333333-4-33333333-6-33333333-----------| ........ . ........ . ........
|------------------------------------------||------------------------------------------||------------------------------------------||------------------------------------------||-5------------------------------------4p3-||-33333333-4-33333333-6-33333333-4-333-----| ........ . ........ . ........ . ...
|------------------------------------------||------------------------------------------||------------------------------------------||------------------------------------------||-5------------------------------3----4----||-33333333-4-33333333-6-33333333-3----2----| ........ . ........ . ........
|------------------------------------------||------------------------------------------||------------------------------------------||------------------------------------------||-5------------------------------------4p3-||-33333333-4-33333333-6-33333333-4-333-----| ........ . ........ . ........ . ...
|------------------------------------------||------------------------------------------||------------------------------------------||---------------------6----5---------------||-5-------------------6----5----2--5--4----||-33333333-4-33333333-----------2--5--4----| ........ . ........
RIFF 3 CHORUS x1
|x2|----------------------------------------||----------------------------------------||----------------------------------------||----------------------------------------||------------4---------------------------||-0-11111111-4-1111-4-1111-3-1111-2-1111-| . ........ .... . .... . .... . ....
|x2|----------------------------------------||----------------------------------------||----------------------------------------||----------------------------------------||------------5---------------------------||-1-22222222-5-2222-5-2222-4-2222-3-2222-| . ........ .... . .... . .... . ....
RIFF 4 BRIDGE x1
|----------------|----------------|----------------|----------------||----------------|----------------|----------------|----------------||----------------|----------------|----------------|----------------||----------------|----------------|----------------|----------------||----------------|----------------|----------------|----------------||-3333-4-3-5-3-6-|-4444-5-4-6-4-7-|-5555-6-5-7-5-8-|-6666-5555-4444-| .... . . . . . .... . . . . . .... . . . . . .... .... ....
|----------------|----------------|----------------|----------------||----------------|----------------|----------------|----------------||----------------|----------------|----------------|----------------||----------------|----------------|----------------|----------------||----------------|----------------|----------------|-8--------7-6-3-||-3333-4-3-5-3-6-|-4444-5-4-6-4-7-|-5555-6-5-7-5-8-|-6--------5-4-3-| .... . . . . . .... . . . . . .... . . . . . x
RIFF 2 VERSE x1 RIFF 3 CHORUS x1 RIFF 5 BREAK x2
|----------------------------|---------------------------||----------------------------|---------------------------||----------------------------|---------------------------||----------------------------|---------------------------||-2-3-2----5-4----7-6----9\--|2-3-2----5-4----8-7---10\--||-0-1-0--0-3-2--0-5-4--0-7\--|0-1-0--0-3-2--0-6-5--0-8\--| . . . . . .
RIFF 5A VERSE x3
|------------------------------------|-----------------------------------||------------------------------------|-----------------------------------||------------------------------------|-----------------------------------||------------------------------------|-----------------------------------||-2-3-2----5-4----7-6----9\----------|2-3-2----5-4----8-7---10\----------||-0-1-0--0-3-2--0-5-4--0-7\--0-0-0-0-|0-1-0--0-3-2--0-6-5--0-8\--0-0-0-0-| . . . . . . . . . . . . . .
RIFF 5B END x1
|----------------------------|---------------------------||----------------------------|---------------------------||----------------------------|---------------------------||----------------------------|---------------------------||-2-3-2----5-4----7-6----9\--|2-3-2----5-4----8-7---10\--||-0-1-0--0-3-2--0-5-4--0-7\--|0-1-0--0-3-2--0-6-5--0-8\--| . . . . . .
|----------------------------|---------------------------------||----------------------------|---------------------------------||----------------------------|---------------------------------||----------------------------|---------------------------------||-2-3-2----5-4----7-6----9\--|2-3-2----5-4----8-7---10--9\\----||-0-1-0--0-3-2--0-5-4--0-7\--|0-1-0--0-3-2--0-6-5--0-8--7\\----| . . . . . .
3. Fictional Reality Tuning Eb RIFF 1 INTRO x4
|-------------------------|-------------------------||-------------------------|-------------------------||-------------------------|-------------------------||-------------------------|-------------------------||-------0-----------2---1-|-------0-----------1---0-||-4-0-3---4-0-3-1-4---3---|-4-0-3---4-0-3-1-3---2---| . . . . . . . . . . . . . . . . . .
RIFF 2 VERSE x7
|-------------------------------------------------||-------------------------------------------------||-------------------------------------------------||-------5\4---------------------5\4---------4-----||-------5\4---6-----------------5\4---6-----4-----||-0-0-0-----0-6-0-0-0-0-0-0-0-0-----0-6-0-0---5-4-| . . . . . . . . . . . . . . . . .
FILL 1
|-------------------------------------------------||-------------------------------------------------||-------------------------------------------------||-------5\4---------------------5\4---------------||-------5\4---6-----------------5\4---6-----------||-0-0-0-----0-6-0-0-0-0-0-0-0-0-----0-6-0-0-2-1-0-| . . . . . . . . . . . . . . . . . .
RIFF 3 BRIDGE x1
|-------------------------------------------------||-------------------------------------------------||-------------------------------------------------||-------------------------------------------------||-0-----------0-----------0-----------0-----1-----||---4-3-2-1-0---4-3-2-1-0---4-3-2-1-0---4-3---3-1-| . . . . . . . . . . . . . . . . . . .
RIFF 4 CHORUS x1
|-------------------------------------------------||-------------------------------------------------||-------------------------------------------------||-------------------------------------------------||-------------------------------------3---2-------||-0-0-2-0-0-0-3-0-2-0-0-0-5-0-3-0-0-0---0---5-3-2-| . . . . . . . . . . . . . . . . . . . . . .
|-------------------------------------------------||-------------------------------------------------||-------------------------------------------------||-------------------------------------------------||-------------------------------------3-2-0-------||-0-0-2-0-0-0-3-0-2-0-0-0-5-0-3-0-0-0-------4-3-2-|
. . . . . . . . . . . . . . . . . . . . .
|-------------------------------------------------||-------------------------------------------------||-------------------------------------------------||-------------------------------------------------||-------------------------------------3---2-------||-0-0-2-0-0-0-3-0-2-0-0-0-5-0-3-0-0-0---0---5-3-2-| . . . . . . . . . . . . . . . . . . . . . .
|-------------------------------------------------||-------------------------------------------------||-------------------------------------------------||-------------------------------------------------||-------------------------------------1-0---------||-0-0-2-0-0-0-3-0-2-0-0-0-5-0-3-0-0-0-----4-3-2-1-| . . . . . . . . . . . . . . . . . . . . . .
SOLO 1 KING WAH___________________ A.H. BAR WAH WAH___ WAH___|------------------------------------------------------------19-22b^^^^----||--------------------------------------------------17-20b^^----------------||-/9b^^^999999^9b^-9b^-9b^--9b^^-----------/16b^^--------------------------||--------------------------------------------------------------------------||--------------------------------------------------------------------------||---------------------------------0\\\\------------------------------------|
RIFF 2 x2 UNDER SOLO RIFF 2 VERSE x7 FILL 1 RIFF 3 BRIDGE x1 RIFF 4 CHORUS x1 RIFF 5 BREAK x1
|-------------------------------------------------|------||-------------------------------------------------|------||-------------------------------------------------|------||-------------------------------------------------|------||-3-----2-----1-----------3-----2-----1-----------|-5----||---2-1---2-1---2-1-3-2-1---2-1---2-1---2-1-3-2-1-|-3----| . . . . . . . . . . . . . . . . . . x
FILL 2
|-------------------------------------------------||-------------------------------------------------||-------------------------------------------------||-------------------------------------------------||-2-----------------------------------------------||-0-----------------------------------------------|
RIFF 6 INTERLUDE x1
|-------------------------------------------------||-------------------------------------------------||-------------------------------------------------||-------------------------------------------------||-------------------------------------------------||-0h3p0h3p0h3p0h3p0h3p0h3p0h3p0h3p0h3p0h3p0h3p0h3-|
|-------------------------------------------------||-------------------------------------------------||-------------------------------------------------||-------------------------------------------------||-------------------------------------------------||-1h4p1h4p1h4p1h4p1h4p1h4p1h4p1h4p1h4p1h4p1h4p1h4-|
FILL 3
|-------------------------------------------------||-------------------------------------------------||-------------------------------------------------||-------------------------------------------------||-------------------------------------------------||-0h3p0h3p0h3p0h3p0h3p0h3p0h3p0h3p0h3p0h3p0h3p0h3-|
|KING|-------------------------------------------------||-------------------------------------------------||-------------------------------------------------||-------------------------------------------------||-------------------------------------------------||-1h4p1h4p1h4p1h4p1h4p1h4p1h4p1h4p1h4p1h4p1h4p1h4-|
| |
|HANNEMAN| BAR|-------------------------------------------------||-------------------------------------------------||-------------------------------------------------||-------------------------------------------------||-2\\\\\\\\\\\\\\\\//\\\\\\\\//\\\\\\\\-----------||-0\\\\\\\\\\\\\\\\//\\\\\\\\//\\\\\\\\-----------|
SOLO 2 HANNEMAN BAR N.H. BAR BAR BAR|-24b^^^^-------------------------------------------------------------------|-----------------------------------23\\18/24b//\/\/\/\/\/\////\\--/23//|------------0\\\\h4////\\\\\\\\-----------------------------------/22//|---------------------------------------------------------------------------|---------------------------------------------------------------------------|---------------------------------------------------------------------------
BAR N.H. BAR BAR|---------------------------------------------------------------------------|-18/21\\\\--0\\\\h5//\/\/\/\/\\----//21--//23--//24b///\\\\----------------|---------------------------------------------------------------------------|---------------------------------------------------------------------------|--------------------------------------------------------------------------|---------------------------------------------------------------------------
BAR BAR BAR N.H. BAR BAR|---------------------------------------------------------------------------|---------------------------------------------/24b/\/\/\/\/\/\\\\-----------|------------------------------------5//\\\\-------------------------x\\\\--|-0\\\\//////\\\\\\\\\\----------------------------------------------x\\\\--|-------------0\\\\\\\\-----------------------------------------------------|---------------------/7b\\//////\\-----------------------------------------
BAR|-/24b/\/\/\/\\\\--------------------||------------------------------------||------------------------------------||------------------------------------||-----------------21\\\\----x\\\\----||-----------------21\\\\----x\\\\----|
RIFF 6 x8 UNDER SOLO 2 RIFF 7 BREAK x4
|-----------------------------||-----------------------------||-----------------------------||----------8------------------||-2--------6----7--6--------3-||-0-------------5--4--------1-|
RIFF 2 VERSE x7 FILL 1 RIFF 4 CHORUS x1
SOLO 3 KING WAH & BAR/\/\/\/\/\/\/\/\/\/\/\/\/\/\/\/\/\/\/\/\/\/\/\/\/\/\/\/\/\/\/\/\|---------------------------------------------------------------------------|---------------------------------------------------------------------------|-0h4p3p0h4p3p0h4p3p0h4p3p0h4p3p0h4p3p0h6p4p0h6p4p0h7p6p0h7p6p0h4p3p0h4p3p0-|---------------------------------------------------------------------------|---------------------------------------------------------------------------|---------------------------------------------------------------------------
WAH & BAR N.H. BAR WAH WAH WAH WAH WAH WAH WAH|----------------------------|-------------------------------------------||----------------------------|-------------------------------------------||-0\\\\\\\\h3\\////\\\\\\----|-/4b^^--/6b^^--/7b^^--9b^^--/10b-/12b-/13b-||----------------------------|-------------------------------------------||----------------------------|-------------------------------------------||----------------------------|-------------------------------------------|
BAR|------------------|-------------------------------------------------------||------------------|-------------------------------------------------------||-15b//\/\/\/\\----|----------------------------------------------18-19-21-||------------------|-------------------14-15-17----------17-18-20----------||------------------|----------13-14-16----------16-17-19-------------------||------------------|-12-13-15----------------------------------------------|
WAH & BAR|----------18-19-21-22b^^^^-----------------------------------------||-18-20-21----------------------------------------------------------||----------------------------0\\\\\\\\GRADUAL DEPRESSION\\\\\\\\----||-------------------------------------------------------------------||-------------------------------------------------------------------||-------------------------------------------------------------------|
RIFF 2 x3 UNDER SOLO 3 FILL 1 RIFF 3A END
|-------------------------------------------------||-------------------------------------------------||-------------------------------------------------||-------------------------------------------------||-0-----------0-----------0-----------0-----1---3-||---4-3-2-1-0---4-3-2-1-0---4-3-2-1-0---4-3---3-1-| . . . . . . . . . . . . . . . . . . x
4. Dittohead Tune down half step Fast Rock 228
Riff A (Gtr 1) G#5 (end Riff A)|----------------------------------|---------------------------------||----------------------------------|---------------------------------||----------------------------------|---------------------------------||----------------------------------|---------------------------------||----------------------------------|---------------------------------||--4-4-4-4-4-4-5-5-3-3-3-3-3-3-5-5-|-2-2-2-2-2-2-5-5-1-1-1-1-1-1-1-1-|P.M.................................................................
With riff A G#5 A5 G5 A5 F#5 N.C.|--------------------------------|---------------------||--------------------------------|---------------------||--------------------------------|---------------------||--------------------------------|---------------------||---6--------7---5-----------7---|--4------------------||---4--------5---3-----------5---|--2------------19\---|
slRhy. Fig 1 N.C. G5 F5 N.C. Bb5 Ab5|-----------------------------------|-------------------------------------||-----------------------------------|-------------------------------------||-----------------------------------|-------------------------------------||-----------------------------------|-------------------------------------||-----------------------5--------4--|----------------------8---------6----||-0-0-0-0-0-0-0-0--0----3---0----2--|-0-0-0-0--0-0-0-0-0---6----0----4----|
P.M.................. ... ................... ... (Rhy. Fig 1 end) N.C. G5 F#5 N.C.|-----------------------------------|-------------------------------------||-----------------------------------|-------------------------------------||-----------------------------------|-------------------------------------||-----------------------------------|-------------------------------------||----------------------5---------4--|-------------------------------------||-0-0-0-0-0-0-0-0-0----3----0----2--|-4-4-4-4-4-4-5-5-2--2-2--2-2-2-2-----|P.M................ ... .................................
w/Rhy. Fig 1, (2 three quarter times) G5 F#5 NC Bb5 Ab5 legal system has no spine its corroding from in--side NC G5 F#5 Slap your hand you'll do no time N G5 F#5 NC Bb5 Ab5 Reality on vacation all across a blinded nation NC G5 F#5 NC G5 F#5 Mentaly under sedation anyone can be set free NC Bb5 Ab5 NC G5 F#5 On a technicality ex--plain again the law to me
Riff A 2 timesRiff A 1.5 times Rhy Fig 2|--------------------------||---------------------------------||--------------------------||---------------------------------||--------------------------||---------------------------------||--------------------------||---------------------------------||--------------------------||--3---2--------------------------||-2--2--2--2--2---2--5--5--||--1---0---0---0---0---0---0---0--|P.M....................... .......................
F5 E F5 E F5 (accent the F5's) (Rhy Fig 2 end)|--------------------------------||--------------------------------||--------------------------------||--------------------------------||------------3-------3-------3---||-0---0---0--1---0---1---0---1---|
E5 Pick slide - steady gliss F5 E F5 E F5 /-/ x/____x/____x/____x/____x/-/ /-/--/--/ > PM > PM > w/Rhy Fig 2 (3 and & half times) E5 F5 E5 F5 E5 F5 Unimposing policy no enforcing ministry gaping with judicial flaws E5 Watch a fading etc...
F5|-------------------------|||-------------------------|||-------------------------|||-------------------------|||-----------3-----3-------|||--0--0--0--1--0--1--3--2-||PM......... ... .....
||---------------------------------|---------------------------------||||---------------------------------|---------------------------------||||*--------------------------------|--------------------------------*||||*--1-----------1---2-----------0-|--1-----------1---2-------------*||||---1-----------1---2-----------0-|--1-----------1---2--------------||||-------3---2-----------3---2-----|------3---2-----------3---2---1--||PM ....... ....... ....... ............
|--------------------------------|-------------------------------||--------------------------------|-------------------------------||--------------------------------|-------------------------------||--2-----------2---3-----------1-|-2-----------2---3-------------||--2-----------2---3-----------1-|-2-----------2---3-------------||------4---3-----------4---3-----|-----4---3-----------4---3---2-|PM ....... ....... ....... ..........
|--------------------------------||--------------------------------||--------------------------------||--2-----------2---3-----------1-||--2-----------2---3-----------1-||------4---3-----------4---3-----|PM ....... .......
h p h p|--------------------------12-19-12-16-|||--------------------------------------|||--------------------------------------|||--------------------------------------|||--------------------------------------|||--------------------------------------||
| |
|--------------------------------------|||--------------------------------------|||--------------------------------------|||--2-----------2---3-------0---------2-|||--2-----------2---3-------0---------2-|||------4---3-----------4---------------||PM ....... ...
(Solo 1 - Half time feel) Fdbk. vib. w/bar||-12------------(12)~~~~~~~~~~~~~(12)~~~~~~~~~~~~~~~~~~~12-14-14-15--|||--------------------------------------------------------------------|||--------------------------------------------------------------------|||--------------------------------------------------------------------|||--------------------------------------------------------------------|||--------------------------------------------------------------------|
| |
| Rhy Fig 3||------------------------------|-------------------------------------|||------------------------------|-------------------------------------|||------------------------------|-------------------------------------|||-3----------------------0---2-|--3-------3---5---6-------0--------2-|||-3----------------------0---2-|--3-------3---5---6-------0--------2-|||----0---0---0---0---0---------|------0---------------0--------------| PM ................... ... ...
|-15-14-12---------------------------------------------------------||-----------15-----15--12-12-12---13-13-13--12--13---15---15---13--||------------------------------------------------------------------||------------------------------------------------------------------||------------------------------------------------------------------||------------------------------------------------------------------|
| |
| (Rhy. Fig 3 end)|-------------------------------------------------------------------||-------------------------------------------------------------------||-------------------------------------------------------------------||-3------------------------------------------------------0-------2--||-3------------------------------------------------------0-------2--||-------0----0--------0----------0-----------0----------------------|
bnd full|---------------------------------/---------------------------||-12---12------------------------/----------------------------||-----------14------12---12---14/-----------------------------||-------------------------------------------------------------||-------------------------------------------------------------||-------------------------------------------------------------|
| |
| Rhy Fig 3A End Fig 3A|-------------------------------------------------------------||-------------------------------------------------------------||-------------------------------------------------------------||-3------------------3------------------------------0------2--||-3------------------3------------------------------0------2--||------------0----------------5-------4------3----------------|PM ... ...................
w/Rhy Fig 3 AH sl ~~~~~~~~~~ ~~~~~~~~~ ~~~~~~~~~~~ ~~~~~~~~~~|----------------------|------------------------------||----------------------|------------------------------||-14----------14-------|-14----------14------(14)\----||----------------------|---------------------------\--||----------------------|------------------------------||----------------------|------------------------------|
h p p p w/Rhy Fig 3B sl|--------------------------------------------|---------------------------||--------------------------------------------|---------------------------||-11-11--12-11--12--14-14-12-11--------------|---------------------------||--------------------------------14--12--11--|-12-14--11-11--------------||--------------------------------------------|--------------14-14-12\----||--------------------------------------------|------------------------\--|
******************************** Rhy Fig 3B (Gtrs 1 & 2) ** |-------------------------| ** |-------------------------| ** |-------------------------| ** |-3-----------------0--2--| ** |-3-----2-----------0--2--| ** |----0-----4--3--2--------| ** PM ............... ******************************** trem bar
*1/2 w/Rhy Fig 3 (bnd 1/2) /----\|--------------------------------/-|-----------------------------------|----|-------------------------------/--|-----------------------------------|----|------------------------------/---|-----------------------------------|----|----------------------------7/----|------------------------7--9--7--9------|-2/7--7--8-8-7--8-10-7--10--------|-(7)--7--8--9--7--8--9-------------|----|----------------------------------|-----------------------------------|---- sl h
* = pull bar up w/Rhy Fig 3A
AH trem bar \1/ 1/2 (half) sl sl|---------------------------------||-7----------------(7)\--------/--||--------------------------3-/----||---------------------------------||---------------------------------||---------------------------------|AH=pitch:c#
w/Rhy. Fig 3 h|----------------------------------------------------------||-11-11-11-12-12-11-11-12-12-12-14-12-12-13-15-12-13-12-13-||----------------------------------------------------------||----------------------------------------------------------||----------------------------------------------------------||----------------------------------------------------------|
p p|----------------------------------------------------------||-13-12-13-13-14-14-16-16-14-14-13-14-14-15-15-17-17-15----||----------------------------------------------------------||-------------------------------------------------------14-||----------------------------------------------------------||----------------------------------------------------------|
|----------------------------------------------------------||----------------------------------------------------------||----------------------------------------------------------||-15-17-15-15-16-18-15-16-----------17-18-20-17-18-20-17---||----------------------------------------------------------||----------------------------------------------------------|
w/Rhy. Fig 3C F5 h h h h sl|----------------------------------------------------------|||----------------------------------------------------------|||-------19-17---18---20-----17---18---20-----18/19--22--19-|||-18-20----------------------------------------------------|||----------------------------------------------------------|||----------------------------------------------------------|| h
******************************* Rhy Fig 3C (Gtrs 1 & 2) ** |------------------------| ** |------------------------| ** |------------------------| ** |-3-----------------1----| ** |-3-----2-----------1--3-| ** |----0-----4--3--2-----1-| ** PM............. *******************************
w/Rhy Fig 2 (4 times)
E5 sl 8va----------------| F5 E5|--23-------------------|------------------|------------------||--23-----(23)\---------|------------------|------------------||--------------\--------|------------------|------------------||---------------\-------|------------------|------------------||----------------\------|------------------|------------------||-----------------------|------------------|------------------|
F5 E5 F5 placed in fame Legislature sets the stage (end half time feel) E5 F5 Social slaves caught in my rage
Slower 138|------------------------------------|------------------------------------||------------------------------------|------------------------------------||----3--------4--------5--------6----|----4--------5--------6--------7----||----5--1-----6--2-----7--3-----8--4-|----5--2-----6--3-----7--4-----8--5-||-1-----3--2-----4--3-----5--4-----6-|-2-----3--3-----4--4-----5--5-----6-||-3--------4--------5--------6-------|-3--------4--------5--------6-------|
|--------------------------------------|------------------||--------------------------------------|------------------||----8--------9--------10--------11----|----8--------9----||----8--6-----9--7-----10--8-----11--9-|----8--6-----9--7-||-5-----6--6-----7--7------8--8------9-|-5-----6--6-----7-||-5--------6--------7---------8--------|-5--------6-------|
|---------------------------||---------------------------||----10--------11-----------||----10--8-----11--10--9\\7-||-7------8--8------10--9--8-||-7---------8---------------| sl
|------------------|-----------------------|-----------------------------||------------------|-----------------------|-----------------------------||----10-------11---|----12--------13-------|-10-------11-------12--------||----8--8-----9--9-|----10--10----11--11---|-8--8-----9--9-----10--10----||-7-----6--8-----7-|-9------8--10-----9--7-|----6--8-----7--9------8--10-||-5--------6-------|-7---------8---------5-|-------6--------7---------8--|
(cont in slashes)|--------------------------------|||--------------------------------|||-13-----------------------------|||-11--12--11--10-----------------|||-----10--9---8---11--10\\-8--8--|||-----------------9---8--\\6--6--|| sl
Guitar solo 2 Faster 224 (double time feel)
E Rhy Fig 4 /===/==/==/ /===/==/==/ /===/==/==/ /===/==/==/ PM................................................... t p t p t p t p t p t p t p t p|-------------------------------------------------------||-------------------------------------------------------||-16--12-16-12--16--12-16-12--16-12-16-12--16--12-16-12-||-------------------------------------------------------||-------------------------------------------------------||-------------------------------------------------------|
/===/==/==/ /===/==/==/ /===/==/==/ /===/==/==/ PM................................................... t p t p t p t p t p t p t p t p|-------------------------------------------------------||-------------------------------------------------------||-16--13-16-13--16--13-16-13--16-13-16-13--16--13-16-13-||-------------------------------------------------------||-------------------------------------------------------||-------------------------------------------------------|
G5 E G#5 E /------/===/ /===/---/ /-----/===/ /===/---/
P.M.............. P.M......... t p t p t p t p t p t p t p t p|-------------------------------------------------------||-------------------------------------------------------||-16--14-16-14--16--14-16-14--16-14-16-14--16--14-16-14-||-------------------------------------------------------||-------------------------------------------------------||-------------------------------------------------------|
G5 E G5 F#5 F5 /------/===/ /===/---/ /-----/ / (end Rhy fig 4)
P.M.............. t p t p t p t p t p t p t p t p|-------------------------------------------------------||-------------------------------------------------------||-19--14-19-14--19--14-19-14--19-14-19-14--19--14-19-14-||-------------------------------------------------------||-------------------------------------------------------||-------------------------------------------------------|
w/Rhy Fig 4 (2 3/4 times) t p t p t p t p t p t p t p t p|--------------------------------------------------------||-17-12--16-12--17-12--16-12--17-12--16-12--17-12--17-13-||--------------------------------------------------------||--------------------------------------------------------||--------------------------------------------------------||--------------------------------------------------------|
t p t p t p t p t p t p t p t p|--------------------------------------------------------||-17-13--17-13--17-13--17-13--17-13--17-13--17-13--17-13-||--------------------------------------------------------||--------------------------------------------------------||--------------------------------------------------------||--------------------------------------------------------|
G5 E G#5 E t p t p t p t p t p t p t p t p|--------------------------------------------------------||-18-13--18-13--18-13--18-13--18-13--18-13--18-13--18-13-||--------------------------------------------------------||--------------------------------------------------------||--------------------------------------------------------||--------------------------------------------------------|
G5 E G5 F#5 F5 t p t p t p t p t p t p t p t p|--------------------------------------------------------||-20-15--19-15--20-15--20-15--20-15--20-15--20-15--20-15-||--------------------------------------------------------||--------------------------------------------------------||--------------------------------------------------------||--------------------------------------------------------|
E G5 E G#5 E trem bar 1/2 3 1/2 ------------ bnd full bnd full bnd full bnd full p sl|----/---------/--------/--|-----/---------21--|-(21)-------------------||-20/-------20/------20/---|--20/~~~~~~~~~~20--|-(20)-(20)-17/--0-------||--------------------------|-------------------|----------------0-------||--------------------------|-------------------|------------------------||--------------------------|-------------------|------------------------||--------------------------|-------------------|------------------------|
G5 E G5 F#5 F5 E bnd full bnd full p|-----------------------|------------------------------||---/--------/----------|------------------------------||-7/-------7/ ~~~~~~~~~-|-4-4-5-4-5--4-4-7-5-4-5-4-4-7-||-----------------------|------------------------------||-----------------------|------------------------------||-----------------------|------------------------------|
G5 E G#5 E 6 trem bar ----------------- bnd 1/2|-------------------------|------------------------19-/-----||-------------------------|------------------------22/------||-------------------------|---------------------------------||-5-4-5-4-4---------------|---------------------------------||-----------7-5-3-7-------|---------------------------------||-------------------0---0-|-0-------------------------------|
G5 F#5 F5 / /--/ / w/Rhy Fig 4 (3 3/4 times) bnd 1/2 bnd 1/2 bnd 1/2 bnd 1 1/2 sl|-19-/----19-/----19-/~~~~~~~~~~||-----/---------------------|--------------|-22/-----22/-----22/-----------||----/----------------------|--------------|-------------------------------||-21/----------(21)~~~~~~~~~|~~~(21)\------|-------------------------------||---------------------------|--------\-----|-------------------------------||---------------------------|--------------|-------------------------------||---------------------------|--------------
G5 E G#5 E G5 E G5 F#5 F5 E The world around you drifting to a G5 E G#5 E G5 E G5 F#5 F5 E Continental tomb you see Violence is my G5 E G#5 E G5 E G5 F#5 F5 passion, I will never be contained E G5 E G#5 E We're living with aggression and it's ever lasting reign G5 E G5 F#5 F5 /--/==/ /==/--/ /--/--/ P.M.......... > > > THATS IT!!! 5. Divine Intervention Tuning Eb RIFF 1 INTRO x2
|-------------------------------------------------||-------------------------------------------------||-------------------------------------------------||--9-----------9--------9-----9--9--9--9--9--9----||-10----------10-------10----10-10-10-10-10--9----||-----0--0--0-----0--0--------------------------0-| . . . . . .
|-------------------------------------------------||-------------------------------------------------||-------------------------------------------------||-12----------12-------12----12-12-12-12-12-12----||-13----------13-------13----13-13-13-13-13-12----||-----0--0--0-----0--0--------------------------0-| . . . . . .
RIFF 1A INTRO x2
|-------------------------------------------------||-------------------------------------------------||-------------------------------------------------||--9-----------9-----9--9-----9--9--9--9--9--9----||-10----------10----10-10----10-10-10-10-10--9----||-----0--0--0-----0-----------------------------0-| . . . . .
|-------------------------------------------------||-------------------------------------------------||-------------------------------------------------||-12----------12----12-12----12-12-12-12-12-12----||-13----------13----13-13----13-13-13-13-13-12----||-----0--0--0-----0-----------------------------0-| . . . . .
RIFF 2 MAIN x4
|--------------------------------------------------------------------------||--------------------------------------------------------------------------||--------------------------------------------------------------------------||-------------------------------------------------------9-------9---9---9--||------------------------------------------------------10------10--10---9--||-0--0--0--0--0--0--0--0--0--0--0--0--0--0--0--0--0--0---------------------| . . . . . . . . . . . . . . . . . .
|--------------------------------------------------------------------------||--------------------------------------------------------------------------||--------------------------------------------------------------------------||------------------------------------------------------12------12--12--12--||------------------------------------------------------13------13--13--12--||-0--0--0--0--0--0--0--0--0--0--0--0--0--0--0--0--0--0---------------------| . . . . . . . . . . . . . . . . . .
RIFF 3 BREAK x1
|KING|--------------------------------------|------------------------------------|--------------------------------------|------------------------------------|--------------------------9-----------|--------------------------9---------|---------9b^^^^-------------10b^^^^---|---------9b^^^^-------------10-9b^^-|------7----------------7--------------|------7----------------7------------|-0-------------0--0-------------------|-0-------------0--0-----------------
| |
|HANNEMAN|--------------------------------------|------------------------------------|--------------------------------------|------------------------------------|--------------------------------------|------------------------------------|-9\\\\--------------------------------|------------------------------------|-7\\\\--------------------------------|------------------------------------|--------------------------------------|------------------------------------
|KING|--------------------------------------|------------------------------------|--------------------------------------|------------------------------------|--------------------------9-----------|-----------------------------9------|---------9b^^^^-------------10b^^^^^--|---------9b^^^^-----------8----10-9-|------7----------------7--------------|------7----------------7------------|-0-------------0--0-------------------|-0-------------0--0-----------------
| |
|HANNEMAN|--------------------------------------|------------------------------------|--------------------------------------|-----------------------------------|--------------------------------------|------------------------------------|--------------------------------------|------------------------------------|-2------------------------------------|-2----------------------------------|-0------------------------------------|-0----------------------------------
|KING|--------------------------------------|------------------------------------|--------------------------------------|------------------------------------|--------------------------9-----------|--------------------------9---------|---------9b^^^^-------------10b^^^^---|---------9b^^^^-------------10-9b^^-|------7----------------7--------------|------7----------------7------------|-0-------------0--0-------------------|-0-------------0--0-----------------
| |
|HANNEMAN|--------------------------------------|------------------------------------|--------------------------------------|------------------------------------|--------------------------------------|------------------------------------|--------------------------------------|------------------------------------|-2----2--2-----2--2----2--2--2--------|-2----2--2-----2--2----2--2--2--2---|-0----0--0-----0--0----0--0--0--------|-0----0--0-----0--0----0--0--0--0--- .x . .x . .x . . .x .x . .x . .x . . . .x
|KING|--------------------------------------|------------------------------------|--------------------------------------|------------------------------------|--------------------------9-----------|-----------------------------9------|---------9b^^^^-------------10b^^^^^--|---------9b^^^^-----------8----10-9-|------7----------------7--------------|------7----------------7------------|-0-------------0--0-------------------|-0-------------0--0-----------------
| |
|HANNEMAN|--------------------------------------|------------------------------------|--------------------------------------|------------------------------------|--------------------------------------|------------------------------------|--------------------------------------|------------------------------------|-2----2--2-----2--2----2--2--2--------|-2----2--2-----2--2----2--2--2--2---|-0----0--0-----0--0----0--0--0--------|-0----0--0-----0--0----0--0--0--0--- .x . .x . .x . . .x .x . .x
Tap to rate this tab
 
# A B C D E F G H I J K L M N O P Q R S T U V W X Y Z