Slayer - Mandatory Suicide tab

----------------------------------------------------------------------------
		 Mandatory Suicide - Slayer
----------------------------------------------------------------------------
Tabbed by: Brack


Tuning Eb


 RIFF 1 INTRO x8

|KING|------------------------||------------------------||------------/9-8--------||-----------------7------||-5-4-3-2-----------8-7^-||-3-2-1-0----------------|| . . .
|
|HANNEMAN|------------------------||------------------------||------------------10-9^-||------------/9-8--------||-5-4-3-2---------7------||-3-2-1-0----------------| . . .
RIFF 2 INTRO x4
|----------------------------------||----------------------------------||----------------------------------||----------------------------------||-4--------3-2---------------------||-4--------1-0---------------------|
FILL 1
|------------||------------||------------||------------||-4--------3-||-4--------1-|
RIFF 3 INTRO x4
|KING|-------------------------||-------------------------||-------------------------||-------------------------||-2-5-2-5-4-3-2-52--5-4-3-||-0-3-0-3-2-1-0-30--3-2-1-|| . . . . . . . .. . . .
|
|HANNEMAN|-------------------------||-------------------------||-------------------------||-------------------------||---5---5-4-3---5---5-4-3-||-0-3-0-3-2-1-0-30--3-2-1-| . . . . . . . .. . . .
RIFF 2A VERSE x4
|----------------------------------||----------------------------------||----------------------------------||----------------------------------||-4--------3-2---------------------||-4--------1-0-0-0-0-0-0-0-0-0-0-0-| . . . . . . . . . . .
FILL 1 RIFF 4 BREAK x4
|----------------||----------------||----------------||-----9^-8^------||-----------10^--||-0-0------------| . .
RIFF 4A BRIDGE x3
|KING|------------------||------------------||------------------||-----4---3--------||-----2---1---4/5--||-0-0---0---0-1/3--|| . . . .
|
|HANNEMAN|------------------||------------------||------------------||------------------||-----9---8---3/5--||-0-0-7-0-6-0-1/3--| . . . .
FILL 2
|---------||---------||---------||---------||-----9---||-0-0-7-0-| . . .
RIFF 2A VERSE x4 FILL 1 RIFF 3 CHORUS x7 FILL 3
|-------||-------||-------||-------||-2-52--||-0-30--| . ..
RIFF 1 INTERLUDE x4 SOLO HANNEMAN
|-------------------------------------17fb--17b^^-----------------||-17-15fb---15b-15b----15h17p15h17p15--------------15h17p15-17b^^-||-----------------------------------------------------------------||-----------------------------------------------------------------||-----------------------------------------------------------------||-----------------------------------------------------------------|
|---------------------------------------------------||-15h17p15h17---------------------------------------||-------------16fb--16b^^--14-12-------14-12--------||--------------------------------14-12-------14b^^--||---------------------------------------------------||---------------------------------------------------|
|------------------------------------------------------------7----7-||----------------------------------------------8---8-10-8-10---10---||----------------------------------7---7-9-7-9---9------------------||---------------------7----7-9-7-9---9------------------------------||------7----7-10-7-10---10------------------------------------------||-7-10---10---------------------------------------------------------|
|-10-9-7-10-9-7-10-9-7-10-9-7-12-10-9-12-10-9-12-10-9-12-10-9-13-12-10-||----------------------------------------------------------------------||----------------------------------------------------------------------||----------------------------------------------------------------------||----------------------------------------------------------------------||----------------------------------------------------------------------|
|-13-12-10-13-12-10-13-12-10-15-13-12-15-13-12-16-15-13-16-15-13/18b^--||----------------------------------------------------------------------||----------------------------------------------------------------------||----------------------------------------------------------------------||----------------------------------------------------------------------||----------------------------------------------------------------------|
BAR BAR BAR BAR|----------------------------------------------------------------------||-21fb--21fb----21b-21///\\/\/\-------------21///\\--22///\\--23///\\--||-------------------21///\\/\/\----21///\\--20///\\--21///\\--22///\\--||----------------------------------------------------------------------||----------------------------------------------------------------------||----------------------------------------------------------------------|
BAR BAR|----------------------------||-22///\\--20//\/\/\/\\\\----||-21///\\--19//\/\/\/\\\\----||----------------------------||----------------------------||----------------------------|
RIFF 5 x6 UNDER SOLO
|----------------------------------||----------------------------------||----------------------------------||----------------------------------||-2----2-2-2-3-3-3-5-5-3-3-3-3-3-3-||-0----0-0-0-1-1-1-3-3-1-1-1-1-1-1-| . . . . . . . . . . . . . .
RIFF 4 BREAK x4 RIFF 4A BRIDGE x3 FILL 2 RIFF 2A VERSE x4 FILL 1 RIFF 3 CHORUS x8 FILL 4
|------------------||------------------||------------------||------------------||-2----------------||-0----------------|
RIFF 5 OUTRO x20 UNDER HANNEMAN WILD SOLOING FILL 4A END
|----------||----------||----------||----------||-2--------||-0--------| x
Tap to rate this tab
 
# A B C D E F G H I J K L M N O P Q R S T U V W X Y Z