Slayer – Filleri Dont Want To Hear It tab

I couldnt find a well written tab for this song, and its friggin awesome,
so I tabbed it out for everyone else who couldnt find good tabs.
learn the parts, then play them in order. its a pretty simple song
Drop 1/2 step tuning (Eb Ab Db Gb Bb eb)

Notation Key
\ - slide
b - bend
r - return
~ - vibrato
[Trem Pick - fast pick these lines

order-Ax1 Bx4 Cx2 Bx4 Cx2 Solo 
Bx4 Cx4 Dx6 Ex4 Dx4 Ex4 Dx6 Ex4

A|---|--------||---|--------||---|--------||-4-|--------||-4-|-X\\\\--||-2-|-X\\\\--| pick scrape
B|---------------------------------||---------------------------------||-11-11-11-11-11-11-11-11---------||-11-11-11-11-11-11-11-11------7--||--9--9--9--9--9--9--9--9----7-7--||--------------------------7---5--|
C|-----------------------------------------------------||-----------------------------------------------------||-9-9-9-9-9-9-9-9-7-7-7-7-7-7-7-7---------------------||-9-9-9-9-9-9-9-9-7-7-7-7-7-7-7-7-7-7-7-7-7-7-7-7-4---||-7-7-7-7-7-7-7-7-5-5-5-5-5-5-5-5-7-7-7-7-7-7-7-7-4---||---------------------------------5-5-5-5-5-5-5-5-2---|
D|--------------------------------------||--------------------------------------||----------------------------99999999--||-4--4--4--4---4-4--99999999-99999999--||-4--4--4--4---4-4--99999999-77777777--||-2--2--0--2---2-2--77777777-----------| [ 8 ][ 8 ]
E |---------------------------------------||---------------------------------------||-11-11-11-11--9------------------------||-11-11-11-11--9--9--11-11-11-11--9-11--||--9--9--9--9--7--9--11-11-11-11--9-11--||-----------------7---9--9--9--9--7--9--|
SOLO|--------------||--------------||-7br\\--------||-------//6~~~-||--------------||--------------|
|-----------------------------------||-----------------------------------||-11--13-13-13-13-13-13-11-11-13-13-||-----------------------------------||-----------------------------------||-----------------------------------|
|-----------------------------------------||-----------------------------------------||-11-11-13-13-11-11-13-13-11-11-13-14b~~~-||-----------------------------------------||-----------------------------------------||-----------------------------------------|
[Trem pick[|-16--18--19--18--19--21--19--18-19-------------------|[|-----------------------------------21-20-18-21-20-18-|[|-----------------------------------------------------|[|-----------------------------------------------------|[|-----------------------------------------------------|[|-----------------------------------------------------|
[[|-------------------------------------------------------------------|[|-------------------------------------------------------------------|[|-21-19-18-21-19-18-------------------------------------------------|[|-------------------20-18-17-20-18-17-------------------------------|[|-------------------------------------19-17-16-19-17-16-------------|[|-------------------------------------------------------18-16-15\\--|
|-12b--12b--14b--14b--17b--17b--16b--16b--||-15b--15b--17b--17b--20b--20b--19b--19b--||-----------------------------------------||-----------------------------------------||-----------------------------------------||-----------------------------------------|
|-15b--15b--14b--14b--17b--17b--19-22br--22b~~--||-18b--18b--17b--17b--20b--20b------------------||-----------------------------------------------||-----------------------------------------------||-----------------------------------------------||-----------------------------------------------|
Please rate this tab:
x1.0