Slayer – Serenity In Murder tab

Slayer
Serenity in Murder

Down 1/2 a step
eb
Bb
Gb
Db
Ab
Eb

Intro A x3|-------------------------||-------------------------||-------------------------||-------------------------||---6-5---5-4---7-6-------||-8-----7-----5-----7-6-5-|
Intro B x1|-------------------------------||-------------------------------||-------------------------------||-------------------------------||---6-5---5-4---4-3---3-2-1-0-5-||-8-----7-----6-----5---------3-|
Riff 1|-------------------------------------------------||-------------------------------------------------||-------------------------------------------------||-----------------------------------------5-4-3-2-||-4---4-5-4---4---7-5-4---4---4-5-4---4---3-2-1-0-||-2-0-2-3-2-0-2-0-5-3-2-0-2-0-2-3-2-0-2-0---------|
Riff 1 (cont'd)|-----------------------------------------------------||-----------------------------------------------------||-----------------------------------------------------||-----------------------------------------------------||-4---4-5-4---4---7-5-4---4---4-5-4-----------2-------||-2-0-2-3-2-0-2-0-5-3-2-0-2-0-2-3-2-0-2-0-3-4---5-4-3-|
Riff 2|-------------------------------------------------||-------------------------------------------------||-------------------------------------------------||-----------------------------------------5-4-3-2-||-4---4-5-4---4---7-5-4---4---4-5-4---4---3-2-1-0-||-2-0-2-3-2-0-2-0-5-3-2-0-2-0-2-3-2-0-2-0---------|
Riff 2 (cont'd)|---------------------------------------||---------------------------------------||---------------------------------------||---------------------------------------||-4---4-5-4---4---7-5-4---4---4-5-4-----||-2-0-2-3-2-0-2-0-5-3-2-0-2-0-2-3-2-0-2-|
Riff 3|-------------------------------------------------||-------------------------------------------------||-------------------------------------------------||-------------2-------------------3---------------||-----2---2-3---3-2-------3---3-4---4-3-------2---||-3-4---4-----------4-4-5---5-----------5-3-4---4-|
|-----------------------------------------------------||-----------------------------------------------------||-----------------------------------------------------||-----2-------------------1-------------------0-------||-2-3---3-2-------1---1-2---2-1-------0---0-1---1-0---||-----------4-2-3---3-----------3-1-2---2-----------1-|
Riff 4 x 2Guitar 1|---------------------------------------||---------------------------------------||---------------------------------------||---------------------------------------||---------------------------------------||-0-0-0-0-2h5p2-0-0-0-0-1h4p1-0-0-0h3p0-|
PM• • • • • • • • • •|-----------------------------------||-----------------------------------||-----------------------------------||-----------------------------------||---------------------------------1-||-0-0-0-0-2h5p2-0-0-0-0-1h4p1-0-0-1-|PM• • • • • • • • • •
Guitar 2 x1|-----------------------------------||-----------------------------------||-----------------------------------||-----------------------------------||-2~~~------------------------------||-0~~~(let ring)--------------------|
Riff 5 A x3|---------------------------------------||---------------------------------------||---------------------------------------||---------------------------------------||---------------------------------------||-0-0-0-0-2h5p2-0-0-0-0-1h4p1-0-0-0h3p0-|
PM• • • • • • • • • •|-----------------------------------||-----------------------------------||-----------------------------------||-----------------------------------||---------------------------------1-||-0-0-0-0-2h5p2-0-0-0-0-1h4p1-0-0-1-|PM• • • • • • • • • •
Riff 5 B x1|---------------------------------------||---------------------------------------||---------------------------------------||---------------------------------------||---------------------------------------||-0-0-0-0-2h5p2-0-0-0-0-1h4p1-0-0-0h3p0-|
PM• • • • • • • • • •|-----------------------------------------||-----------------------------------------||-----------------------------------------||-----------------------------------1-----||-----------------------------------1-----||-0-0-0-0-2h5p2-0-0-0-0-1h4p1-0-0-3---2-3-|PM• • • • • • • • • •
Riff 6 x2|-----------------------------||-----------------------------||-----------------------------||-----------------------------||-2-3-----1-2-----5-3-----4-2-||-2-3-0-0-1-2-0-0-5-3-0-0-4-2-|
PM • • • • • •|---------------------------------||---------------------------------||---------------------------------||-------------------------------1-||-2-3-----1-2-----5-3-----4-2---1-||-2-3-0-0-1-2-0-0-5-3-0-0-4-2-3---|
Solo 1|-------------------17-17b~~--14b~~-14~~--14-15-14-15-17-14h15p14------||--15b-15b~~--15b~~----------------------------------------------------||--14b-14b~~--14b~~----------------------------------------------------||----------------------------------------------------------------------||----------------------------------------------------------------------||----------------------------------------------------------------------|
|-----------------------------------------------------------------------||-17-14h15p14-14-14-15-14-----------------------------------------------||-------------------------17-14-16-17-16-14----------------------8-9-8-9||-----------------------------------------------9-8~--8-9-8-9-11--------||-----------------------------------------------------------------------||-----------------------------------------------------------------------|
|-----------------------------------21b-||------------------------------\19------||-11-8-9-8---------------\12---\18------||----------11-8-9-8-9-8~-\12------------||---------------------------------------||---------------------------------------|
Rhythm 1 A x1.5|-----------------------------||-----------------------------||-----------------------------||-----------------------------||---------6\5-----5\4---------||-0-0-0-0-4\3-0-0-3\2-0-0-0-0-|
1 2Rhythm 1 A (cont'd) |¯¯|¯¯¯¯¯¯¯¯¯¯¯¯|-------------------------------|-----------||-------------------------------|-----------||-------------------------------|-----------||-------------------------------|---1-------||---------6\5-----5\4---------3-|---1-------||-0-0-0-0-4\3-0-0-3\2-0-0-0-0-1-|-3---3-2-1-|
Rhythm 1 B|---------------------------------------||---------------------------------------||---------------------------------------||---------------------------------------||---------------------------------------||-0-0-0-0-2h5p2-0-0-0-0-1h4p1-0-0-0h3p0-|
PM• • • • • • • • • •|-----------------------------------||-----------------------------------||-----------------------------------||-----------------------------------||---------------------------------1-||-0-0-0-0-2h5p2-0-0-0-0-1h4p1-0-0-1-|PM• • • • • • • • • •
Riff 7 x4|---------------------------------||---------------------------------||---------------------------------||-2-------1-----------------------||-2-------1---------5-3-----4-2---||---4-3-0---3-2-0-0-5-3-0-0-4-2-0-|
Riff 8 Guitar 2 only|--------------------------------||--------------------------------||--------------------------------||--------------------------------||--------------------------------||-000000000333333000666666666666-|
Solo 2|-21-21-21-18-18-18-17-17-17-18-18-17-17-15-15-21-21-21-17-18-17-||----------------------------------------------------------------||----------------------------------------------------------------||----------------------------------------------------------------||----------------------------------------------------------------||----------------------------------------------------------------|
|---------------------------------------------------------------||-19-16-17-16---------------------------------------------------||--------------18-15-16-15--------------------------------------||---------------------------17-14-15-14-------------------------||---------------------------------------17-14-15-14-------------||----------------------------------------------------17\--12-12-|
|----------------------------------------------------------------||----------------------------------------------------------------||----------------------------------------------------------------||-------------------------------------------------------12-14-12-||----------------------12-12-14-12-14-12-12-12-14-12-14----------||-12-15-12-15-12-12-12-------------------------------------------|
|--------------------------12-14-15--18-18-18-17-17-17-15-15-||-----------------12-13-15-----------------------------------||-12-15--12-14-15--------------------------------------------||------------------------------------------------------------||------------------------------------------------------------||------------------------------------------------------------|
|-17-17-17-18-18-21-21-21-22-22-22-22-21-21-18-18-21-21-22-22-||-------------------------------------------------------------||-------------------------------------------------------------||-------------------------------------------------------------||-------------------------------------------------------------||-------------------------------------------------------------|
|-22b-22b-22b~~~~~~~\----------------------------------------||------------------------------------------------------------||------------------------------------------------------------||------------------------------------------------------------||------------------------------------------------------------||------------------------------------------------------------|
Rhythm 2|--------------------------------||--------------------------------||--------------------------------||--------------------------------||--------------------------------||-000000000333333000666666666666-|
Outro|-------------------------------------------------||-------------------------------------------------||-------------------------------------------------||-----------------------------------------5-4-3-2-||-4---4-5-4---4---7-5-4---4---4-5-4---4---3-2-1-0-||-2-0-2-3-2-0-2-0-5-3-2-0-2-0-2-3-2-0-2-0---------|
|-----------------------------------------------------||-----------------------------------------------------||-----------------------------------------------------||-----------------------------------------------------||-4---4-5-4---4---7-5-4---4---4-5-4-----------2-------||-2-0-2-3-2-0-2-0-5-3-2-0-2-0-2-3-2-0-2-0-3-4---5-4-3-|
|-------------------------------------------------||-------------------------------------------------||-------------------------------------------------||-----------------------------------------5-4-3-2-||-4---4-5-4---4---7-5-4---4---4-5-4---4---3-2-1-0-||-2-0-2-3-2-0-2-0-5-3-2-0-2-0-2-3-2-0-2-0---------|
|---------------------------------------------------||---------------------------------------------------||---------------------------------------------------||---------------------------------------------------||-4---4-5-4---4---7-5-4---4---4-5-4---4---4---4---4-||-2-0-2-3-2-0-2-0-5-3-2-0-2-0-2-3-2-0-2-0-2-0-2-0-2-|
Song Structure Intro A x3 Intro B x1 Riff 1 x1 Riff 2 x1 Riff 3 x1 Riff 4 x2 Riff 5A X3 Riff 5B x1 Riff 6 x2 Solo 1 Riff 5A x3 Riff 5B x1 Riff 7 x4 Riff 8 x1 Solo 2 Riff 7 x4 Outro
Please rate this tab:
x1.0