Slayer - Haunting The Chapel tab

----------------------------------------------------------------------------
	       Haunting The Chapel Album - Slayer
----------------------------------------------------------------------------
Tabbed by: Brack

1.  Chemical Warfare

Tuning Eb


 RIFF 1 INTRO x2 KING x2 BOTH GUITARS x4 BOTH WITH DRUMS

|---------------------------------||---------------------------------||---------------------------------||---------------------------------||---------------------------------||-0-0-0-0-0-0-0-0-000-0-000-0-000-| . . . . . . . . ... . ... . ...
FILL 1
|KING| N.H. BAR|----------||-5\\\\----||-5\\\\----||----------||----------||----------|
| |
|HANNEMAN|----------||----------||----------||----------||-2--------||-0--------| x
RIFF 2 VERSE x12
|------------------------------||------------------------------||------------------------------||--------------------------1h2-||------------------------------||-000000000000333333111111-----| ........................
RIFF 3 CHORUS x1
|---------------------------------|---------------------------------||---------------------------------|---------------------------------||---------------------------------|---------------------------------||-3-------------2-3-2---------2---|-3-------2-3-2-2-3-2---------2---||-1-------------0-1-0-4-------0---|-1-------0-1-0-0-1-0-4-------0---||---------------------2-----------|---------------------2-----------|
|---------------------------------|---------------------------------||---------------------------------|---------------------------------||---------------------------------|---------------------------------||-3-------------2-3-2---------2---|-3-------2-3-2-2-3-2-------------||-1-------------0-1-0-4-------0---|-1-------0-1-0-0-1-0-4-------5---||---------------------2-----------|---------------------2-------3---| x
FILL 2
|KING| BAR|------------------------------||------------------------------||------------------------------||------------------------------||-0\\\\\\\\--------------------||------------------------------|
RIFF 2 VERSE x3 FILL 3
|------------------------------||------------------------------||------------------------------||------------------------------||-------------5-----3----------||-0000000000003-----1----------| ............
RIFF 2 VERSE x8 RIFF 3 CHORUS x1 FILL 2 RIFF 4 INTERLUDE x4
|-------------------------------------||-------------------------------------||-------------------------------------||----10\9------10----10\9-------------||-----8\7-------8-----8\7-----7-6-----||-000-----00000---000-----7-8-----8-7-| ... ..... ... . . . . . .
RIFF 4A INTERLUDE x2
|-------------------------------------||-------------------------------------||-------------------------------------||-------------------------------------||-----8\7-------8-----8\7-------------||-000-6\5-00000-6-000-6\5-0-1-5-4-1-0-| ... ..... ... . . . . . .
RIFF 4B INTERLUDE x2
|-------------------------------------||-------------------------------------||-------------------------------------||-----7\6-------7-----7\6-------------||-----5\4-------5-----5\4-----4-3-----||-000-----00000---000-----4-5-----5-4-| ... ..... ... . . . . . .
RIFF 1 INTRO x1 KING x1 BOTH x4 BOTH WITH DRUMS FILL 1A
|------------------------------||------------------------------||------------------------------||------------------------------||-2----------------------------||-0----------------------------| x
RIFF 5 INTERLUDE x1|x3 |x1|--------------------|--------------------|-------||--------------------|--------------------|-------||--------------7-----|--------------7-6-5-|-------||-6------------5-7-9-|-6------------5-4-3-|-7-8-7-||-444444444444---5-7-|-444444444444-------|-5-6-5-||--------------------|--------------------|-------| ........... ...........
SOLO 1 KING|-19-12h15-19-12h15-19-12h15-19-12h15-19-12h15-19-12h15-19-12h15-19-12h15-||-------------------------------------------------------------------------||-------------------------------------------------------------------------||-------------------------------------------------------------------------||-------------------------------------------------------------------------||-------------------------------------------------------------------------| T T T T T T T T
|-19-12h15-19-12h15-19-12h15-19-12h15-19-12h15-19-12h15-19-12h15-19-12h15-||-------------------------------------------------------------------------||-------------------------------------------------------------------------||-------------------------------------------------------------------------||-------------------------------------------------------------------------||-------------------------------------------------------------------------| T T T T T T T T
|-18-12h15-17-11h14-16-10h13-15-9h12-16-10h13-15-9h12-14-8h11-13-7h10-||---------------------------------------------------------------------||---------------------------------------------------------------------||---------------------------------------------------------------------||---------------------------------------------------------------------||---------------------------------------------------------------------|
T T T T T T T T BAR|-14-8h11-13-7h10-12-6h9-11-5h8---------------------------||---------------------------------/8b^^^------------------||------------------------------------------9//\/\/\/\\----||---------------------------------------------------------||---------------------------------------------------------||---------------------------------------------------------|
T T T T A.H.|-------------------------------------||-5-6-8-6-5---------------------------||-----------7-6-4-7-6-4---------------||-----------------------6-5-3-3b^^----||-------------------------------------||-------------------------------------|
RIFF 5 x1 UNDER SOLO 1 RIFF 6 BETWEEN SOLOS x4
|---------------------------------------------------------||---------------------------------------------------------||-8-----7-------------------------------------------------||-6-----5--------------7\6--------7\6---------------------||---000---000000000000-5\4-000000-5\4-8-------------------||-------------------------------------6666666666663333666-| ... ............ ...... ...................
SOLO 2 HANNEMAN N.H.|-----------------------------------------------||----------------------------------------15b^^--||----------15-18-16-15-18-16-15-18-16-15--------||-15--------------------------------------------||-----------------------------------------------||-----------------------------------------------|
BAR|-----------------------------------------------||-----------------------------------------------||-15-18-16-15-18-16-15-18-16-15-15b^^-----------||-----------------------------------------------||-----------------------------------------------||--------------------------------------0\\\\----|
|-----------------------------------------------------------------||-----------------------------------------------------------------||-------------------------------------------------------15-16b^^--||-------------------------------------14-15-17-14-15-17-----------||-------------------13-14-16-13-14-16-----------------------------||-12-13-15-12-13-15-----------------------------------------------|
|-15-16-18-16-15--------------------------------------------------------||----------------18-17-15-18-17-15--------------------------------------||----------------------------------18-16-15-18-16-15----------15-16b^^--||----------------------------------------------------17-15-17-----------||-----------------------------------------------------------------------||-----------------------------------------------------------------------|
|-------------------------------------------------------------------------||-------------------------------------------------------------------------||-------------------------------------------------------------------------||-------------------------------------------------------------------------||-------------7-8-10-7-8-10---------------8-10-11-8-10-11-----------------||-6-7-9-6-7-9---------------7-9-10-7-9-10-----------------9-10-12-9-10-12-|
|-------------------------------------------------------24b^^----||----------------------------------------------------------------||-------------------------------------12-13-15-12-13-15----------||-------------------11-12-14-11-12-14----------------------------||-10-11-13-10-11-13----------------------------------------------||----------------------------------------------------------------|
|-------16-------17--------||----------15-------16-----||-14-14-------14-------15--||--------------------------||--------------------------||--------------------------|
BAR|---------------------------------------------------------------------------|----------------------------------------------------------/21b//\/\/\/\\\--|-12-14-12----12------------------------------------------------------------|----------14----14-12-14-12----12------------------------------------------|----------------------------14----14-12-14-12----12------------------------|----------------------------------------------15----15-12------------------
RIFF 2 x8 UNDER SOLO 1 SOLO 3 KING
|-------------------------------------------------------------------------||-------------------------------------------------------------------------||-------------------------------------------------------17-18-20-17-18-20-||-------------------------------------16-17-19-16-17-19-------------------||-------------------15-16-18-15-16-18-------------------------------------||-14-15-17-14-15-17-------------------------------------------------------|
|-------------------17-18-20-17-18-20--23b^^--23b-23b-23b^^--||-17-19-20-17-19-20------------------------------------------||------------------------------------------------------------||------------------------------------------------------------||------------------------------------------------------------||------------------------------------------------------------|
|-18-21-18-20-18-21-18-20-18-21-18-20-18-21-18-20-18--21-20-18-||--------------------------------------------------------------||--------------------------------------------------------------||--------------------------------------------------------------||--------------------------------------------------------------||--------------------------------------------------------------|
|-------------------------------------------------------------------||-20-19-17-20-19-17-------------------------------------------------||-------------------20-18-17-20-18-17-------------------------------||-------------------------------------19-17-16-19-17-16-------------||-------------------------------------------------------18/19b\\\---||-------------------------------------------------------------------|
|-17fb^^1717171717171717r-12-14-12-15-12-14-12-15-12-14-12-15-12-14-12-15-||-------------------------------------------------------------------------||-------------------------------------------------------------------------||-------------------------------------------------------------------------||-------------------------------------------------------------------------||-------------------------------------------------------------------------|
|-12-14-15-14-12-------------------------------------------------------||----------------14-13-11-14-13-11-------------------------------------||----------------------------------14-12-11-14-12-11-------------------||----------------------------------------------------13-11-10-13-11-10-||----------------------------------------------------------------------||----------------------------------------------------------------------|
|-------------------------------------------------||-------------------------------------------------||-------------------------------------------------||-------------------------------------------------||-12-10-9-12-10-9---------------------------------||-----------------11-9-8-11-9-8-11-12-14-11-12-14-|
N.H. BAR|--------------------------------------------------------------------------||--------------------------------------------------------------------------||-------------------------------------14-15-17-14-15-17--------------------||-------------------13-14-16-13-14-16-------------------15////\/\/\/\\/\\--||-12-13-15-12-13-15--------------------------------------------------------||--------------------------------------------------------------------------|
RIFF 3 x1 UNDER SOLO 3 RIFF 7 INTERLUDE x6
|--------------------------------------------------------||--------------------------------------------------------||--------------------------------------------------------||----------9-8----------9-8----------9-8-----------------||-9-----10-7-6-9-----10-7-6-9-----10-7-6-9-----10-11-12--||-777777-8-----777777-8-----777777-8-----777777-8--9-10--| ...... ...... ...... ......
FILL 4
|-----------------------------||-----------------------------||-----------------------------||-----------------------------||-----------------------------||-888-667788-556677-445566-55-| ... ...... ...... ...... ..
RIFF 3 CHORUS x1 RIFF 8A INTO OUTRO x1
|KING| BAR|------------------------------||------------------------------||------------------------------||------------------------------||-0\\\\\\\\--------------------||------------------------------|
| |
|HANNEMAN|------------------------------||------------------------------||------------------------------||-------------3-2----2---------||-5-----4----------------3-----||---222---222-----22---2---222-| ... ... .. . ...
|KING|------------------------------||------------------------------||------------------------------||------------------------------||------------------------------||------------------------------|
| |
|HANNEMAN|------------------------------||------------------------------||------------------------------||-------------3-2----2---------||-5-----4----------------3-----||---222---222-----22---2---222-| ... ... .. . ...
RIFF 8 OUTRO x2
|------------------------------||------------------------------||------------------------------||-------------3-2----2---------||-5-----4----------------3-----||---222---222-----22---2---222-| ... ... .. . ...
RIFF 9 OUTRO x1
|-------------------------------------|-------------------------------------|-------------------------------------|-------------------------------------|-------------------------------------|-------------------------------------|---------------------------------2p1-|---------------------------------3p2-|------3p2------0h2------3p2----------|------3p2------0h2------3p2----------|-4444-----3333-----4444-----3333-----|-4444-----3333-----4444-----3333----- .... .... .... .... .... .... .... ....
|-------------------------------------|----------------------------||-------------------------------------|----------------------------||-------------------------------------|----------------------------||---------------------------------2p1-|----------------------------||------3p2------0h2------3p2----------|------3p2------0h2------3p2-||-4444-----3333-----4444-----3333-----|-4444-----3333-----4444-----| .... .... .... .... .... .... ....
|----------------------------------||----------------------------------||----------------------------------||----------------------------------||----------------------------------||-33333333333333333333333333333333-| ................................
FILL 5 END
|-------------------------------------------------------------------||-------------------------------------------------------------------||-------------------------------------------------------------------||-------------------------------------------------------------------||-22222222222222222222222222222222----------------------------------||-00000000000000000000000000000000----------------------------------|
2. Captor of Sin Tuning Eb SOLO 1 HANNEMAN
|-14h17p14h17p14h17p14h17p14h17p14h17p14---------------20h21p20h21p20h21p20-|-----------------------------------------------x\\\\-----------------------|----------------------------------------x\\\\--x\\\\-----------------------|---------------------------------------------------------------------------|---------------------------------------------------------------------------|---------------------------------------------------------------------------
BAR/\/\/\/\/\/\/\/\/\/\/\/\/\/\/\/\/\/\/\/\/\/\/\/\/\/\/\/\|-------------------------------------------------------------||-------------------------------------------------------------||-23p21\22p20\21p19\20p18\19p17\18p16\17p15\16p14\15p13\14p12-||-------------------------------------------------------------||-------------------------------------------------------------||-------------------------------------------------------------|
A.H.|-2-3-5-3-2-----------------------------------------------------------------|-----------5-4-2-5-4-2-----------------------------------------------------|-----------------------5-3-2-5-3-2-------2-3b^^--3b^^--2-3-5-3-2-----------|-----------------------------------4-2-4-------------------------4-21-2b^^-|---------------------------------------------------------------------------|---------------------------------------------------------------------------
|------------------------------------------------------------||------------------------------------------------------------||---------------------------------------8-9-11-8-9-11-9b^^^--||-------------------------7-8-10-7-8-10----------------------||-------------6-7-9-6-7-9------------------------------------||-5-6-8-5-6-8------------------------------------------------|
|-----------------------------||-13b^^^----------------------||----------8h9p8h9p8h9-6h8p6--||-----------------------------||-----------------------------||-----------------------------|
|--------------------------------------------------------------------||--------------------------------------------------------------------||-12-11-12-10-12-9-12-8-12-7-12-6-12-5-12-4-12-3-12-2-12-1-12-1-12-2-||--------------------------------------------------------------------||--------------------------------------------------------------------||--------------------------------------------------------------------| T T T T T T T T T T T T T
|----------------------------------------------------------------------||----------------------------------------------------------------------||-12-3-12-4-12-5-12-6-12-7-12-8-12-9-12-10-12-11-12-12//22\\\\--x\\\\--||---------------------------------------------------------------x\\\\--||----------------------------------------------------------------------||----------------------------------------------------------------------| T T T T T T T T T T
|-----------------------------------------------------------||-----------------------------------------------------------||-------------------------------------------------11-12b^^--||-------------------------------10-11-13-10-11-13-----------||---------------9-10-12-9-10-12-----------------------------||-8-9-11-8-9-11---------------------------------------------|
|-11-12-14-12-11-----------------------------------------------------------||----------------14-13-11-14-13-11-----------------------------------------||----------------------------------14-12-11-14-12-11----------11-12-14b^^--||----------------------------------------------------13-11-13--------------||--------------------------------------------------------------------------||--------------------------------------------------------------------------|
|---------------------------------------------------------------||---------------------------------------------------------------||--------7-8-10--------8-9-11---------9-10-12----------10-11-13-||-7-8-10--------8-9-11--------9-10-12---------10-11-13----------||---------------------------------------------------------------||---------------------------------------------------------------|
BAR|---------------------------------------------------------------------------|---------------------------------------------------------------------------|----------11-12-14----------12-13-15----------13-14-16--15b-17b///\/\/\/\\-|-11-12-14----------12-13-15----------13-14-16------------------------------|---------------------------------------------------------------------------|---------------------------------------------------------------------------
RIFF 1 x12 UNDER SOLO 1
|---------------------------------||---------------------------------||---------------------------------||---------------------------------||-4---------------------------5---||-222-532-222-320-222-532-222-3---| ... ... ... ... ... ... ...
RIFF 2 BRIDGE x2
|---------------------------------|---------------------------------||---------------------------------|---------------------------------||---------------------------------|---------------------------------||-----------------------------3---|-----------------------------5---||-5---------------5-----2-----1---|-5---------------5-----2-----3---||-3-2-2-2-2-2-2-2-3-0-0-0-0-0-----|-3-2-2-2-2-2-2-2-3-0-0-0-0-0-----| . . . . . . . . . . . . . . . . . . . . . .
RIFF 3A INTO VERSE x1
|KING|-------------------------------------|-------------------------------------|-------------------------------------|-------------------------------------|-------------------------------------|-------------------------------------|-----------------4-----------------3-|-----------------4-----------------8-|-----------------2-----------------1-|-----------------2-----------------6-|-2h3h5-2h3h5-0-0---2h3h5-2h3h5-0-0---|-2h3h5-2h3h5-0-0---2h3h5-2h3h5-0-0---| . . . . . . . .
|
|HANNEMAN|-------------------------------------|-------------------------------------|-------------------------------------|-------------------------------------|-------------------------------------|-------------------------------------|-------------------------------------|-------------------------------------|-4-----------------------------------|------------------15\\\\\\\\\\\\\\---|-2-----------------------------------|------------------15\\\\\\\\\\\\\\--- x
RIFF 3 VERSE x5
|-------------------------------------|-------------------------------------|-------------------------------------|-------------------------------------|-------------------------------------|-------------------------------------|-----------------4-----------------3-|-----------------4-----------------8-|-----------------2-----------------1-|-----------------2-----------------6-|-2h3h5-2h3h5-0-0---2h3h5-2h3h5-0-0---|-2h3h5-2h3h5-0-0---2h3h5-2h3h5-0-0--- . . . . . . . .
RIFF 2A CHORUS x1
|---------------------------------|---------------------------------||---------------------------------|---------------------------------||---------------------------------|---------------------------------||-----------------------------3---|-----------------------------5---||-5---------------5-----2-----1---|-5---------------5-----2-----3---||-3-2-2-2-2-2-2-2-3-0-0-0-0-0-----|-3-2-2-2-2-2-2-2-3-0-0-0-0-0-----| . . . . . . . . . . . . . . . . . . . . . .
|---------------------------------|---------------------------------||---------------------------------|---------------------------------||---------------------------------|---------------------------------||-----------------------------3---|-----------------2-------4-3-2---||-5---------------5-----2-----1---|-2-------4-3-2-----3-2-1-------3-||-3-2-2-2-2-2-2-2-3-0-0-0-0-0-----|---3-2-1-------3-----------------| . . . . . . . . . . .
RIFF 4 BREAK x2
|---------------------------------|---------------------------------||---------------------------------|---------------------------------||---------------------------------|---------------------------------||---------9\8-12\11-------6\5-----|---------9\8-12\11---------9-8-7-||---------7\6-10\\9-------4\3-6\5-|---------7\6-10\\9-7-----7-------||-0-0-0-0-----------0-0-0-----4\3-|-0-0-0-0-------------8-7---------| . . . . . . . . . . . . . .
RIFF 3 VERSE x4 RIFF 2A CHORUS x1 RIFF 5 INTERLUDE x1
|KING|---------------------------------|---------------------------------||---------------------------------|---------------------------------||---------------------------------|-------------------------4-3-2---||-----------------2-------4-3-2---|-----------------2-------------3-||-2-------4-3-2-----3-2-1-------3-|-2-------4-3-2-----3-2-1---------||---3-2-1-------3-----------------|---3-2-1-------3-----------------|
| |
|HANNEMAN|---------------------------------|---------------------------------||---------------------------------|---------------------------------||---------------------------------|---------------------------------||-----------------2-------4-3-2---|-----------------2-------4-3-2---||-2-------4-3-2-----3-2-1-------3-|-2-------4-3-2-----3-2-1-------3-||---3-2-1-------3-----------------|---3-2-1-------3-----------------|
|BOTH|---------------------------------|---------------------------------||---------------------------------|---------------------------------||---------------------------------|---------------------------------||-----------------2-------4-3-2---|-----------------2-------4-3-2---||-2-------4-3-2-----3-2-1-------3-|-2-------4-3-2-----3-2-1-------3-||---3-2-1-------3-----------------|---3-2-1-------3-----------------|
|KING|---------------------------------||---------------------------------||-------------------------4-3-2---||-----------------2-------------3-||-2-------4-3-2-----3-2-1---------||---3-2-1-------3-----------------|
| |
|HANNEMAN|---------------------------------||---------------------------------||---------------------------------||-----------------2-------4-3-2---||-2-------4-3-2-----3-2-1-------3-||---3-2-1-------3-----------------|
|BOTH|---------------------------------|---------------------------------||---------------------------------|---------------------------------||---------------------------------|---------------------------------||-----------------2-------4-3-2---|-----------------2-------4-3-2---||-2-------4-3-2-----3-2-1-------3-|-2-------4-3-2-----3-2-1-------3-||---3-2-1-------3-----------------|---3-2-1-------3-----------------|
RIFF 6 BREAK x1
|-----------------------------------------||-----------------------------------------||-----------------------------------------||-5--------------8----7--------12---11----||-3----4----5----6----5----8---10----9----||------2----3--------------6--------------|
SOLO 2 KING BAR/\/\/\/\/\/\/\/\/\/\/\/\/\/\ BAR N.H. BAR|------------------------------------------------------||------------------------------------------------------||-0h3p2p0h3p2p0h3p2p0h3p2p0h3p2p0-0\\\\h6\/\/\/\/\\----||------------------------------------------------------||------------------------------------------------------||------------------------------------------------------|
|-18-21-20-18-21-20-18-21-20-18-21-20-18-21-20-18-21-20-18-||----------------------------------------------------------||----------------------------------------------------------||----------------------------------------------------------||----------------------------------------------------------||----------------------------------------------------------|
|-21-20-18-21-20-18-20-23-21-20-23-21-20-23-21-20-23-21-20-24b^^^^----||---------------------------------------------------------------------||---------------------------------------------------------------------||---------------------------------------------------------------------||---------------------------------------------------------------------||---------------------------------------------------------------------|
|-------------------------------------||-------------------------------------||-5b^^--12-5-12-5-12-5-12-5-12-5-12-5-||-------------------------------------||-------------------------------------||-------------------------------------| T T T T T T
|----------------------------------------------------------------||----------------------------------------------------------------||-12-5h7-12-5h7-12-5h7-12-5h7-11-4h6-11-4h6-11-4h6-11-4h6-11-4h6-||----------------------------------------------------------------||----------------------------------------------------------------||----------------------------------------------------------------| T T T T T T T T T
|-----------------------------------------------------||-----------------------------------------------------||-10-3h5-10-3h5-10-3h5-10-3h5-9-2h4-9-2h4-9-2h4-9-2h4-||-----------------------------------------------------||-----------------------------------------------------||-----------------------------------------------------| T T T T T T T T
|-------------------------------------------------------------||-------------------------------------------------------------||-8-2h4-8-2h4-8-2h4-8-2h4-7-2h4-7-2h4-7-2h4-7-2h4-6-2h4-6-2h4-||-------------------------------------------------------------||-------------------------------------------------------------||-------------------------------------------------------------|
T T T T T T T T T T BAR|----------------------------------------------||----------------------------------------------||-6-2h4-6-2h4-5-2h4-5-2h4-5-2h4-5-2h4----------||----------------------------------------------||----------------------------------------------||-------------------------------------0\\\\----| T T T T T T
|-------------------------------------------------------------------||-------------------------------------------------------------------||-15-14-12-15-14-12-14-12-11-14-12-11-12-11-9-12-11-9-11-9-8-11-9-8-||-------------------------------------------------------------------||-------------------------------------------------------------------||-------------------------------------------------------------------|
|-------------------------------------------------||-------------------------------------------------||-9-8-6-9-8-6-8-6-5-8-6-5-6-5-3-6-5-3-5-3-2-5-3-2-||-------------------------------------------------||-------------------------------------------------||-------------------------------------------------|
RIFF 1 x10 UNDER SOLO 2 FILL 1
|--------------------------------||--------------------------------||--------------------------------||--------------------------------||-2---2---2---2---2---2---2---2--||-0---0---0---0---0---0---0---0--| x x x x x x x x
SOLO 3 KING BAR BAR/\/\/\/\ BAR/\/\/\/\/\/\/\/\|-----------------------------------------------21b^^^^----||--------------------------17h20p17h20p17h20p17------------||-0\\\\h3p2p0h3p2p0-9b^^-----------------------------------||----------------------------------------------------------||----------------------------------------------------------||----------------------------------------------------------|
OVER VERSE BAR BAR N.H. BAR|---------------------------||---------------------------||------------0\\\\h3//\\\\--||---------------------------||---------------------------||-0\\\\\\-------------------|
RIFF 1 x2 UNDER SOLO 3 RIFF 3 VERSE x4 RIFF 2A CHORUS x1 RIFF 4 BREAK x3 RIFF 4A BREAK x1
|---------------------------------|---------------------------------||---------------------------------|---------------------------------||---------------------------------|---------------------------------||---------9\8-12\11-------6\5-----|---------9\8-12\11---------------||---------7\6-10\\9-------4\3-6\5-|---------7\6-10\\9-7-----7-------||-0-0-0-0-----------0-0-0-----4\3-|-0-0-0-0-------------8-7---7-6-5-| . . . . . . . . . . . . . .
FILL 2 END
|---------||---------||---------||---------||-4-4-----||-2-2-----| x
END WITH WILD SOLOING 3. Haunting The Chapel Tuning Eb RIFF 1A INTO MAIN x1
|KING|-----------------------------------|-----------------------------------||-----------------------------------|-----------------------------------||-----------------------------------|-----------------------------------||-----9/12-----9/11-----5-----------|-----9/12-----9/11-----5------10---||-----7/10-----7//9-------7-6-5-----|-----7/10-----7//9-------7-6-5-8---||-0-0------0-0------0-0---------5-8-|-0-0------0-0------0-0-------------| . . . . . . . . . . . . . .
|KING|-----------------------------------|-----------------------------------||-----------------------------------|-----------------------------------||-----------------------------------|-----------------------------------||-----9/12-----9/11-----5-----------|-----9/12-----9/11-----5------10---||-----7/10-----7//9-------7-6-5-----|-----7/10-----7//9-------7-6-5-8---||-0-0------0-0------0-0---------5-8-|-0-0------0-0------0-0-------------|| . . . . . . . . . . . . . .
|
|HANNEMAN|-----------------------------------|-----------------------------------||-----------------------------------|-----------------------------------||-----------------------------------|-----------------------------------||-----------------------------------|-----------------------------------||-2-2------2-2------2---------------|-2-2------2-2------2---------------||-0-0------0-0------0---------------|-0-0------0-0------0---------------| . .x . .x . x . .x . .x .x
RIFF 1 MAIN x2
|-----------------------------------|-----------------------------------||-----------------------------------|-----------------------------------||-----------------------------------|-----------------------------------||-----9/12-----9/11-----5-----------|-----9/12-----9/11-----5------10---||-----7/10-----7//9-------7-6-5-----|-----7/10-----7//9-------7-6-5-8---||-0-0------0-0------0-0---------5-8-|-0-0------0-0------0-0-------------| . . . . . . . . . . . . . .
RIFF 2A INTO VERSE x1
|KING|----------------------------------------------------------------||----------------------------------------------------------------||----------------------------------------------------------------||-----------------------------------------------------------4----||-8---------------------------------------------------------2----||-6--------------------------------------------------------------|| .x
|
|HANNEMAN|----------------------------------------------------------------||----------------------------------------------------------------||----------------------------------------------------------------||-----------------------------------------------------------4----||-1-0-------------1-0-------3-2---1-0-------------1-0-3-----2----||-----1-0-0-0-0-2-----1-0-4-----2-----1-0-0-0-0-2-----1----------| . . . . . . . . . . . . . x
|BOTH|----------------------------------------------------------------||----------------------------------------------------------------||----------------------------------------------------------------||-----------------------------------------------------------4----||-1-0-------------1-0-------3-2---1-0-------------1-0-3-----2----||-----1-0-0-0-0-2-----1-0-4-----2-----1-0-0-0-0-2-----1----------| . . . . . . . . . . . . . x
RIFF 2 VERSE x1|x3|----------------------------------------------------------------||----------------------------------------------------------------||----------------------------------------------------------------||-----------------------------------------------------------4----||-1-0-------------1-0-------3-2---1-0-------------1-0-------2----||-----1-0-0-0-0-2-----1-0-4-----2-----1-0-0-0-0-2-----1-0-0------| . . . . . . . . . . . . . . .
|x1|----------------------------------------------------------------||----------------------------------------------------------------||----------------------------------------------------------------||-----------------------------------------------------------4----||-1-0-------------1-0-------3-2---1-0-------------1-0-3-----2----||-----1-0-0-0-0-2-----1-0-4-----2-----1-0-0-0-0-2-----1----------| . . . . . . . . . . . . . x
RIFF 1 MAIN x2 RIFF 2 VERSE x1 RIFF 1 MAIN x2 RIFF 3A INTO INTERLUDE x1
|KING|-------------------------------|-------------------------------||-------------------------------|-------------------------------||-------------------------------|-------------------------------||-3---2-------------------------|-------------------------------||---4---3-4---------------------|------------------x\\\\\\\\\\\-||---------2---------------------|-------------------------------|| x
|
|HANNEMAN|-------------------------------|-------------------------------||-------------------------------|-------------------------------||-------------------------------|-------------------------------||-3---2-------------------------|-3---2-------------------------||---4---3----------4-3----------|---4---3----------4-3----------||---------22222222-----22222222-|---------22222222-----22222222-| ........ ........ ........ ........
RIFF 3 INTERLUDE x5
|-------------------------------||-------------------------------||-------------------------------||-3---2-------------------------||---4---3----------4-3----------||---------22222222-----22222222-| ........ ........
FILL 1
|KING|--------------------------------------||--------------------------------------||--------------------------------------||-3---2----------------3---2---1---0---||---4---3----------4-3---4---3---2---1-||---------22222222---------------------|| ........
|
|HANNEMAN|--------------------------------------||--------------------------------------||----------------------5---4---3---2---||-3---2------------------6---5---4---3-||---4---3----------4-3-----------------||---------22222222---------------------| ........
RIFF 4 INTERLUDE x3
|----------------------------||----------------------------||----------------------------||----------------------------||-8------------------6---6-7-||-666666666666-7-6-7---7-----| ............
FILL 2
|----------------------||----------------------||----------------------||----------------------||-8------------6-5-4---||-666666666666-------5-| ............
RIFF 3 INTERLUDE x3 FILL 1 RIFF 4 INTERLUDE x3 FILL 2 RIFF 3 INTERLUDE x3 FILL 1
RIFF 5 INTERLUDE x4|KING|----------------------------------||----------------------------------||----------------------------------||-----------------6-5-----8-7------||-7-6-----9-8---------7-6-----9-8--||-----8-7----10-9------------------|
| |
|HANNEMAN|----------------------------------||----------------------------------||----------------------------------||----------------------------------||----------------------------------||-00000000111111113333333344446666-| ................................
SOLO 1 HANNEMAN
|-10-11-13-11-10---------------------------------------------------||----------------13-12-10-13-12-10---------------------------------||----------------------------------13-11-10-13-11-10---------------||----------------------------------------------------12-10-9-12-10-||------------------------------------------------------------------||------------------------------------------------------------------|
|-------------------------------------10-11-13-10-11-13-||-------------------10-12-13-10-12-13-------------------||-10-11-13-10-11-13-------------------------------------||-------------------------------------------------------||-------------------------------------------------------||-------------------------------------------------------|
|-1414141413131313-171717161616-14-1717171616161414---------||---------------------------------------------------16b^^\\-||-----------------------------------------------------------||-----------------------------------------------------------||-----------------------------------------------------------||-----------------------------------------------------------|
|---------------------------------------------||-15-16-18-15-16/19b^^---15-18-16-15----------||------------------------------------16b^^----||---------------------------------------------||---------------------------------------------||---------------------------------------------|
|-/20fb^^r-20b^^--16-17-19-17-16----------16-17-19-17-16----------||--------------------------------19-18-19----------------19-18-19-||-----------------------------------------------------------------||-----------------------------------------------------------------||-----------------------------------------------------------------||-----------------------------------------------------------------|
|-16-17-19-17-16-------------------------------------||----------------19-18-16-19-18-16-------------------||----------------------------------19-17-16-19-17-16-||----------------------------------------------------||----------------------------------------------------||----------------------------------------------------|
|-------------------------------------------------------||-------------------------------------------------------||-------------------------------------------------------||-18-16-15-18-16-15-------------------------------------||-------------------17-15-14-17-15-14-------------------||-------------------------------------16-14-13-16-14-13-|
|-17-19-20-17-19-20-17-19-20-17-19-20-17-19-20-17-19-||----------------------------------------------------||----------------------------------------------------||----------------------------------------------------||----------------------------------------------------||----------------------------------------------------|
|-19-17-16-19-17-16-------------------------------------||-------------------19-18-16-19-18-16-------------------||-------------------------------------19-17-16-19-17-16-||-------------------------------------------------------||-------------------------------------------------------||-------------------------------------------------------|
A.H.|-------------------------------------------------------------||-16-15-13-16-15-13-------------------------------------------||-------------------16-14-13-16-14-13----------------13-14b^--||-------------------------------------15-13-12-13-15----------||-------------------------------------------------------------||-------------------------------------------------------------|
|-/20--24fb^^^^(25^^25^25^25^^)r--24fb^^^----||--------------------------------------------||--------------------------------------------||--------------------------------------------||--------------------------------------------||--------------------------------------------|
|-19-22-20-19-22-20-19-22-20-19-22-20-19-24fb^^^^--||--------------------------------------------------||--------------------------------------------------||--------------------------------------------------||--------------------------------------------------||--------------------------------------------------|
|-20-22-23-22-20-22-20-19-22-20-19-------------------------------------||----------------------------------22-21-19-22-21-19-------------------||----------------------------------------------------22-20-19-22-20-19-||----------------------------------------------------------------------||----------------------------------------------------------------------||----------------------------------------------------------------------|
|----------------------------------------------------||-16-18-19-18-16-------------------------------------||----------------19-17-16-19-17-16-------------------||----------------------------------18-16-15-18-16-15-||----------------------------------------------------||----------------------------------------------------|
N.H. BAR|--------------------------------------------------------------||-13-15-16-15-13-----------------------------------------------||----------------16-14-13-16-14-13-----------------------------||----------------------------------15-13-12-15-13-12-10\\\\----||--------------------------------------------------------------||--------------------------------------------------------------|
RIFF 6 x1 UNDER SOLO 1
|x5|-----------------------------------------------------------------||-----------------------------------------------------------------||-----------------------------------------------------------------||-----------------------------------------------------------------||-9--------8-9-9--------9-11-9--------11-12-9--------12-11--9--8--||-77777777-----77777777------77777777-------77777777--------------| ........ ........ ........ ........
|x1|-----------------------------------------------------------------||-----------------------------------------------------------------||-----------------------------------------------------------------||-----------------------------------------------------------------||-9--------8-9-9--------9-11-9--------11-12-9---------7--6--4--3--||-77777777-----77777777------77777777-------7---------5--4--2--1--| ........ ........ ........ x
SOLO 2 KING A.H.|-6-7-9-7-6-----------------------------------------------------||-----------9-8-6-9-8-6-----------------------------------------||-----------------------9-7-6-7-9b^^--9b^^--6-7-9-7-6-----7b^^--||-----------------------------------------------------8b^-------||---------------------------------------------------------------||---------------------------------------------------------------|
|-------------------------------||-------------------------------||-6-7-9-7-6---------------------||-----------8-6-5---------------||-----------------7-5-4---------||-----------------------6-4-3\\-|
|-6-7-9-6-7-9-6-7-9-7-9-10-7-9-10-7-9-10-9-10-12-9-10-12-9-10-12-||----------------------------------------------------------------||----------------------------------------------------------------||----------------------------------------------------------------||----------------------------------------------------------------||----------------------------------------------------------------|
|-10-12-13-10-12-13-10-12-13-12-13-15-13-12-||-------------------------------------------||-------------------------------------------||-------------------------------------------||-------------------------------------------||-------------------------------------------|
|---------------------------------------------------------------------------|-15-14-12-15-14-12---------------------------------------------------------|-------------------15-13-12-15-13-12----------------12b^^--15-13-12--------|-------------------------------------14-12-11-12-14-----------------14b^^--|---------------------------------------------------------------------------|---------------------------------------------------------------------------
|----------------------------------------------------------------||----------------------------------------------------------------||-12-13-15-13-12-------------------------------------------------||----------------14-12-11-14-12-11-------------------------------||----------------------------------13-11-10-13-11-10-------------||----------------------------------------------------12-10-9b\\--|
|------------------------------------------------------------------------||---------------------------------------------------------12fb^r--12b^^--||-------------------------------------12-13-15-12-13-15b^-12fb^r--12b^^--||-------------------11-12-14-11-12-14------------------------------------||-10-11-13-10-11-13------------------------------------------------------||------------------------------------------------------------------------|
BAR N.H. BAR|-3-4-6-4-3---------------------------------------------------------------||-----------6-5-3-6-5-3---------------------------------------------------||-----------------------6-4-3-6-4-3---------------------------------------||-----------------------------------5-3-2-5-3-2---------------------------||-----------------------------------------------4-2-1-0\\\\\-6///\/\/\\\--||-------------------------------------------------------------------------|
|-----------------------------------------||-----------------17-20-17----17-20-17----||-/16b^^--/18b^^-----------19----------19-||-----------------------------------------||-----------------------------------------||-----------------------------------------|
|-----------------------------------------------||-17-20-17----17-20-17----17-20-17----17/24b^^--||----------19----------19----------19-----------||-----------------------------------------------||-----------------------------------------------||-----------------------------------------------|
|----------------------------------------------------------------------||-18-20-21-20-18-------------------------------------------------------||----------------21-19-18-21-19-18-------------------------------------||----------------------------------20-18-17-20-18-17-------------------||----------------------------------------------------19-17-16-19-17-16-||----------------------------------------------------------------------|
|--------------------------------------------------------------||--------------------------------------------------------------||-------------------------------------------------------18b\\--||-------------------------------------17-18-20-17-18-20--------||-------------------16-17-19-16-17-19--------------------------||-15-16-18-15-16-18--------------------------------------------|
|------------------------------------------------------||----15-18-15----15-18-15----15-18-15------------------||-16----------16----------16----------1616161615151515-||------------------------------------------------------||------------------------------------------------------||------------------------------------------------------|
|------------------------------------------------------||------------------------------------------------------||----13-16-13----13-16-13----13-16-13------------------||-15----------15----------15----------1515151514141414-||------------------------------------------------------||------------------------------------------------------|
|-------------------------------------------|-----------------19b--18--||----------2020-----------------------------|---------15--14-----------||-16161616------16161616-18181818-16161616--|-13--12-------------------||-------------------------------------------|--------------------------||-------------------------------------------|--------------------------||-------------------------------------------|--------------------------|
|-15-16-18-16-15-----------------------------------------------||----------------18-17-15-18-17-15----------23b^----21b\\\\----||----------------------------------18-16-15/22b^----21b\\\\----||--------------------------------------------------------------||--------------------------------------------------------------||--------------------------------------------------------------|
RIFF 6A x8 UNDER SOLO 2
|---------------------------------------------------------||---------------------------------------------------------||---------------------------------------------------------||---------------------------------------------------------||-2--------1h2-2--------2h4-2--------4h5-2--------5-4-2-1-||-00000000-----00000000-----00000000-----00000000---------| ........ ........ ........ ........
RIFF 7 OUTRO x1
|KING|-----------------------------------------||-----------------------------------------||-----------------------------------------||-----------------------------8-7---------||-2---------------------------6-5---------||-0---------------------------------------|| x x
|
|HANNEMAN|-----------------------------------------||-----------------------------------------||-----------------------------------------||-----------------------------------------||---8-7---8-7---7-6---6-7-6---6-5---5-6-5-||-9-----9-----8-----8-------7-----7-------| . . . . . .
|KING|-----------------------------------------------||-----------------------------------------------||-----------------------------------------------||---7-6---------6-5-----------5-4-----------4-3-||---5-4---------4-3-----------3-2-----------2-1-||-----------------------------------------------|| x x x x
|
|HANNEMAN|-----------------------------------------------||-----------------------------------------------||-----------------------------------------------||---------------------------------------------3-||---5-4---5-4---4-3---3-4-3---3-2---2-3-2---2-1-||-6-----6-----5-----5-------4-----4-------3-----| . . . . . . . x
FILL 3 END
|----------||----------||----------||-4-3------||-2-1-5-2--||-----3-0--| x
4. Aggressive Perfector Standard Tuning RIFF 1 INTRO x1
|---------------------------------|--------------------------------||---------------------------------|--------------------------------||---------------------------------|--------------------------------||---------------------------------|--------------------------------||-5555555555555555----------------|-444444444444444----------------||-3333333333333333----------------|-222222222222222----------------|
|---------------------------------------------||---------------------------------------------||---------------------------------------------||---------------------------------------------||-4--4--4--4--2222222222222222----------------||-2--2--2--2--0000000000000000----------------| x x x x
FILL 1
|KING|---------------------------------------------------------------------------|---------------------------------------------------------------------------|---------------------------------------------------------------------------|---------------------------------------------------------------------------|-(2)-----------------------------------------------------------------------|-(0)-----------------------------------------------------------------------
| |
|HANNEMAN|-1212121212121212121212121212121212121212121212121212121212121212//20b^^---|---------------------------------------------------------------------------|---------------------------------------------------------------------------|---------------------------------------------------------------------------|---------------------------------------------------------------------------|---------------------------------------------------------------------------
|KING|-------------------------------------|-------------------------------------|-------------------------------------|-------------------------------------|-------------------------------------|-------------------------------------|-----12\11-----12\11-----12\11--7--9-|-----12\11-----12\11-----12\11--7--9-|-----10\\9-----10\\9-----10\\9--5--7-|-----10\\9-----10\\9-----10\\9--5--7-|-000-------000-------000-------------|-000-------000-------000-------------| ... ... ... ... ... ...
|
|HANNEMAN|-1212121212121212121212121212121212121212121212121212121212121212//20b^^---|---------------------------------------------------------------------------|---------------------------------------------------------------------------|---------------------------------------------------------------------------|---------------------------------------------------------------------------|---------------------------------------------------------------------------
RIFF 2 VERSE x3
|-------------------------------------|-------------------------------------|-------------------------------------|-------------------------------------|-------------------------------------|-------------------------------------|-----12\11-----12\11-----12\11--7--9-|-----12\11-----12\11-----12\11--7--9-|-----10\\9-----10\\9-----10\\9--5--7-|-----10\\9-----10\\9-----10\\9--5--7-|-000-------000-------000-------------|-000-------000-------000------------- ... ... ... ... ... ...
RIFF 3 CHORUS x2
|-----------------------------|-----------------------------||-----------------------------|-----------------------------||-----------------------------|----------------------5-4----||-4------4--------------------|-4------4------5------3-2-5--||-2-2222-2-2222-3------3------|-2-2222-2-2222-3-3333-----3--||---------------1-1111-1-1111-|-----------------------------| .... .... .... .... .... .... ....
FILL 2
|KING|-------------------------------------|-------------------------------------|-------------------------------------|-------------------------------------|-------------------------------------|-------------------------------------|-----12\11-----12\11-----12\11--7--9-|-----12\11-----12\11-----12\11--7--9-|-----10\\9-----10\\9-----10\\9--5--7-|-----10\\9-----10\\9-----10\\9--5--7-|-000-------000-------000-------------|-000-------000-------000-------------| ... ... ... ... ... ...
|
|HANNEMAN|-------------------------------------|-------------------------------------|-------------------------------------|-------------------------------------|-------------------------------------|-------------------------------------|-------------------------------------|-------------------------------------|-2-----------------------------------|-------------------------------------|-0-----------------------------------|------------------------------------- x
RIFF 2 VERSE x3 RIFF 3 CHORUS x2 RIFF 4 INTERLUDE x1
|-------------------------------------|-------------------------------------|-------------------------------------|-------------------------------------|-------------------------------------|-------------------------------------|-------------------------------------|-------------------------------------|-7--------6-------10--------9--------|-7--------6-------10--------9---10---|-5--------4--------8--------7--------|-5--------4--------8--------7----8---
RIFF 5 INTERLUDE x8
|----------------||----------------||----------------||----------------||-0-2--0-2-------||----------3-2-0-| . . .
SOLO 1 HANNEMAN
|-0-3-2-0-3-2-0-3-2-0-5-3-0-5-3-0-5-3-0-7-5-0-7-5-0-7-5-0-9-7-0-9-7-0-9-7-||-------------------------------------------------------------------------||-------------------------------------------------------------------------||-------------------------------------------------------------------------||-------------------------------------------------------------------------||-------------------------------------------------------------------------|
|-15-16-18-16-15----------------------------------------------||----------------18-17-15-18-17-15----------------------------||----------------------------------18-16-15-16b^^--18b^^\\----||-------------------------------------------------------------||-------------------------------------------------------------||-------------------------------------------------------------|
RIFF 6 x4 UNDER SOLO 1
|-------------------------------------||-------------------------------------||-------------------------------------||-4--------2--------5--------4--------||-22222222-00000000-33333333-22222222-||-------------------------------------| ....... ....... ....... .......
SOLO 2 KING
|-19fb^^----19fb^^----21fb^^----||-------------------------------||-------------------------------||-------------------------------||-------------------------------||-------------------------------|
|-18-19-21-19-18----------------------------------------------------||----------------21-20-18-21-20-18----------------18-20/21fb^^^r----||----------------------------------21-19-18-19-21-------------------||-------------------------------------------------------------------||-------------------------------------------------------------------||-------------------------------------------------------------------|
RIFF 6 x4 UNDER SOLO 2 SOLO 3 HANNEMAN
|-19-12h15-19-12h15-19-12h15-19-12h15-19-12h15-19-12h15-19-12h15-19-12h15-||-------------------------------------------------------------------------||-------------------------------------------------------------------------||-------------------------------------------------------------------------||-------------------------------------------------------------------------||-------------------------------------------------------------------------| T T T T T T T T
|-19-12h15-19-12h15-19-12h15-19-12h15------------||-------------------------------------20-15\\\---||------------------------------------------------||------------------------------------------------||------------------------------------------------||------------------------------------------------| T T T T T
|-------------------|-14-17-14-15-14-17-14-15-16-17-18-19-20-21-22-23-24-||----17fb^^^^^^^^r--|----------------------------------------------------||-18----------------|----------------------------------------------------||-------------------|---------------------------------------
Tap to rate this tab
 
# A B C D E F G H I J K L M N O P Q R S T U V W X Y Z