Slayer – Mind Control tab

MIND CONTROL - SLAYER
Tabbed by : Bridon@mpx.com.au
Transcription taken from SLAYER tab book.
I have omitted top two strings for quicker tabbing

Rhy. Fig. 1|------------------------------------|-----------------------||------------------------------------|-----------------------||-------------------6p3--------------|-4----------------5--4-||-3-3-3-3--3-3-3-3------3-3--3-3-3-3-|-4--3-3--3-3-3-3--3--2-|
(end Rhy. Fig 1 )|------------------------------------|-----------------------||------------------------------------|-----------------------||-------------------6p3--------------|-4------------6\5/6--4-||-3-3-3-3--3-3-3-3------3-3--3-3-3-3-|-4--3-3--3-3--6\5/6--4-|
Rhy. Fig. 2|-----------------------------------|-----------------------------------||------------------5p2--------------|------------------4p2--------------||-1---------------------------------|-2---------------------------------||-1--0-0--0-0-0-0------0-0--0-0-0-0-|-2--0-0--0-0-0-0------0-0--0-0-0-0-|
(end Rhy. Fig 2)|-----------------------------------|--------------------------------||------------------3p2--------------|--------------------------------||-3---------------------------------|-1-------------------------3--2-||-3--0-0--0-0-0-0------0-0--0-0-0-0-|-1--0-0--0-0-0-0--0-0-0-0--3--2-|
Rhy. Fig. 3 (Solo I)|------------------|------------------||------------------|------------------||-2--------------3-|-2----------------||-0-0-0-0--0-0-0-1-|-0-0-0-0--0-0-0-0-| . . . . . . . . . . . . .
SOLO I|------------|---------|----------------------------------------------||------------|---------|----------------------------------------12-13-||-----2/12~~-|-12\8/11-|-(11)-9-11-12-9-11-12-11-12-14-11-12-14-------||-x\x--------|---------|----------------------------------------------||------------|---------|----------------------------------------------||------------|---------|----------------------------------------------|
|----------------------12-12-14-14-14-15-15-|-15~~~--15p14p12h14-14~tremb--||-15-12-13-15-12-13-15----------------------|------------------------------||-------------------------------------------|------------------------------||-------------------------------------------|------------------------------||-------------------------------------------|------------------------------||-------------------------------------------|------------------------------|
|-14--12-------|----------|--------------|------------|----------||---------15^\-|----------|--------------|------------|----------||--------------|----------|--------------|------------|----------||--------------|----------|--------------|------------|-4^--4~~~-||--------------|-2/3\2~~~-|-(2)h3p2-1~~~-|-2--3--(3)/-|----------||--------------|----------|--------------|------------|----------|
|--------|--------2-|-3-5-3-2-------------------||--------|------5---|---------5-3-2-3-5-3-2-----||------4-|-3~~~-----|-----------------------4-3-||-(4)----|----------|---------------------------||--------|----------|---------------------------||--------|----------|---------------------------|
|-------------|-------------|------------|--------------|-------------||-------------|-------------|------------|----------(6)-|-(5)\--------||-(4)---------|----------4--|-4\---------|-----------5--|--4--2--1--5-||----2--1--5--|--4--7--6----|---2--1--5--|--4--7--6-----|-------------||-------------|-------------|------------|--------------|-------------||--0----------|-------------|------------|--------------|-------------|
|--------------|-----------------|----------------|--------||--------------|-----------------|------------(6)-|-(5)~~~-||-----------5--|--4\-------------|-------------5--|--4~~~~-||--4--7--6-----|-----(2)-(1)-(5)-|-(4)-(7)-(6)----|--------||--------------|------2---1---5--|--4---7---6-----|--------||--------------|-----------------|----------------|--------|
Rhy. Fig. 4|------------------------------|------------------------------||------------------------------|------------------------------||-------------------8----------|-------------------7----------||-4-3-3-3--3-3-3-3--6--3-3-3-3-|-4-3-3-3--3-3-3-3--5--3-3-3-3-|
(end Rhy. Fig 4)|------------------------------|------------------------------------||------------------------------|------------------------------------||-------------------6----------|------------------------------------||-4-3-3-3--3-3-3-3--4--3-3-3-3-|-4-3-3-3--3-3-3-3--4-4-4-4--4-4-4-4-|
Rhy. Fig. 5 (Solo 2)|------------------------------------|-----------------------------||------------------------------------|-----------------------------||-------------------4p1--------------|-2-------------------------2-||-1-1-1-1--1-1-1-1------1-1--1-1-1-1-|-2--1-1--1-1-1-1--1-1-1-1--2-|
|------------------------------------|-----------------------------||------------------------------------|-----------------------------||-------------------4p1--------------|-2-------------------------3-||-1-1-1-1--1-1-1-1------1-1--1-1-1-1-|-2--1-1--1-1-1-1--1-1-1-1--3-|
|------------------------------------|-----------------------------||------------------------------------|-----------------------------||-------------------4p1--------------|-2-------------------------2-||-1-1-1-1--1-1-1-1------1-1--1-1-1-1-|-2--1-1--1-1-1-1--1-1-1-1--2-|
(end Rhy. Fig. 5)|------------------------------------|-----------------------||------------------------------------|-----------------------||-------------------4p1--------------|-2------------4\3/4--2-||-1-1-1-1--1-1-1-1------1-1--1-1-1-1-|-2--1-1--1-1--4\3/4--2-|
SOLO 2|-------------------------------------------------||-------------------------------------------------||-16-15-13----------------16-15-13----------------||----------16-15-13-15-16----------16-15-13-15-16-||-------------------------------------------------||-------------------------------------------------|
|-------------------------------------------------||-------------------------------------------------||-16-15-13----------------16-15-13----------------||----------16-15-13-15-16----------16-15-13-15-16-||-------------------------------------------------||-------------------------------------------------|
|-------------------------------------------------||-------------------------------------------------||-17-16-14----------------18-17-15----------------||----------17-16-14-16-17----------18-17-15-17-18-||-------------------------------------------------||-------------------------------------------------|
|-------------------------------------------------||-------------------------------------------------||-18-17-15----------------18-17-15----------------||----------18-17-15-17-18----------18-17-15-17-18-||-------------------------------------------------||-------------------------------------------------|
|-------------------------------------------------||-------------------------------------------------||-20-19-17----------------20-19-17----------------||----------20-19-17-19-20----------20-19-17-19-20-||-------------------------------------------------||-------------------------------------------------|
|-------------------------------------------------||-------------------------------------------------||-20-19-17----------------20-19-17----------------||----------20-19-17-19-20----------20-19-17-19-20-||-------------------------------------------------||-------------------------------------------------|
|-20-19-17----------------21-20-18----------------||----------20-19-17-19-20----------21-20-18-20-21-||-------------------------------------------------||-------------------------------------------------||-------------------------------------------------||-------------------------------------------------|
trembar.|-22-21-19----------------19-19^^-|-22^-|-0------h3/-||----------22-21-19-21-22---------|-----|-0----------||---------------------------------|-----|------------||---------------------------------|-----|------------||---------------------------------|-----|------------||---------------------------------|-----|------------|
T/T T|-17--17-17--17-17-17-17--17\x-|-x/x-20p17--------x/--||------------------------------|------------------x/--||------------------------------|----------------------||------------------------------|----------------------||------------------------------|----------------------||------------------------------|----------------------|
|-15-15-17-17-18----------------------------||----------------16-16-17-17-19-17-16-------||-------------------------------------19-18-||-------------------------------------------||-------------------------------------------||-------------------------------------------|
|-----------------------------------------------||-----------------------------------------------||-18-18-16-15-16-15-----------------------------||-------------------18-18-16-15-16--16-16-15-13-||-----------------------------------------------||-----------------------------------------------|
|-----------------------------------------|-----------------||-----------------------------------------|-------5(tremb)--||-----------------------------------------|-----------------||-----------------------------------------|-----------------||-16-15-16-15-13-13-----------------------|-----------------||-------------------16-14-14-13-14(tremb)-|-(14)------------|
|-----------------|------|------------x-----x---24-||-20^-20^-20^~~~~-|-(20)-|-22^--x---x---x-----x----||-----------------|------|--------x-------x--------||-----------------|------|-------------------------||-----------------|------|-------------------------||-----------------|------|-------------------------|
|-------------------------21------------||-23-------21-------23-21----23---------||----22-------21-----------------22-----||-------21-------21------------------21-||---------------------------------------||---------------------------------------|
tremb|------------||------------||------------| Depress bar before striking then pull up|------------||-0----------||-0----------|
|-22^~~~~(w/bar)--|-22^-(pull bar up)---||-----------------|---------------------||-----------------|---------------------||-----------------|---------------------||-----------------|---------------------||-----------------|---------------------|
This riff is under last part of solo 2|---------|---------|---------|---------|---------|---------||---------|---------|---------|---------|---------|---------||---2-1-4-|-3-6-5-8-|-7\3-2-5-|-4-7-6-9-|-8\2-1-4-|-3-6-5-8-||-0-0-0-2-|-1-4-3-6-|-5\1-0-3-|-2-5-4-7-|-6\0-0-2-|-1-4-3-6-|
|---------|----------||---------|----------||-7\3-2-5-|-4-7-6-9\-| End song on G5 power chord...|-5\1-0-3-|-2-5-4-7\-|
Please rate this tab:
x1.0